top separator

Home

Forum

What's New

Submit a Tab

FAQ

Links

Contact Us

Link to Us

MetalTabs.com logo

Bands

0-9

A

B

C

D

E

F

G

H

I

J

K

L

M

N

O

P

Q

R

S

T

U

V

W

X

Y

Z

Search

What

Where
 

XXX Maniak - "Slaughterhouse Pornography" Guitar Tab

Plain Text Version
More XXX Maniak Tabs

Hits: 1873
Updated: 2006-02-22 04:06:22

 

By:

Robbie Filth

sendpm.gif

email.gif

Important note
This tab is available online because we obtained explicit permission from XXX Maniak or their label.


#----------------------------------PLEASE NOTE---------------------------------#
#This file is the author's own work and represents their interpretation of the #
#song. You may only use this file for private study, scholarship, or research. #
#Unless specified otherwise, this is NOT an official tab from the band members.#
#------------------------------------------------------------------------------#

  Visit MetalTabs.com for more metal tablature
  
Band: XXX Maniak
Album: Split with Lymphatic Phlegm
Song: Slaughterhouse Pornography
Record Label: Black Hole Productions
Tuning: Bb Eb Ab Db F Bb

------------------
------------------
------------------
-------------6----
-5-4-2-4-5-4-4-4--
-3-2-0-2-3-2---2--X2
 pm. . . . .   .

------------------
------------------
------------------
------------------
-------------4----
-3-2-0-2-3-2---2--X4
 trem...........

------------------
------------------
------------------
-------------6----
-5-4-2-4-5-4-4-4--
-3-2-0-2-3-2---2--X2
     pm.   .   .

---------------------------------S--------------------------------
------------------------------------------------------------------
------------------------------------------------------------------
------------------------------------------------------------------
------------------------------------------------------------------
-1-4-1-4-1-4-1-4-1-4-1-4-1-4-1-4-2-5-2-5-2-5-2-5-2-5-2-5-2-5-2-5--
 trem............................................................

-S-------------------------------S---------------S------------------
--------------------------------------------------------------------
--------------------------------------------------------------------
--------------------------------------------------------------------
-----------------------------------------------------------------3--
-1-4-1-4-1-4-1-4-1-4-1-4-1-4-1-4-2-5-2-5-2-5-2-5-1-4-1-4-1-4-3-2-1--
 trem...........................................................

S = Slows down

THE END

any corrections mail em to: septic_flesh241@hotmail.com

  Visit MetalTabs.com for more metal tablature

bottom separator

Contact Us | Privacy Policy | Disclaimer | Legal Notice
Copyright © 2001-2014 MetalTabs.com. All Rights Reserved.