top separator

Home

Forum

What's New

Submit a Tab

FAQ

Links

Contact Us

Link to Us

MetalTabs.com logo

Bands

0-9

A

B

C

D

E

F

G

H

I

J

K

L

M

N

O

P

Q

R

S

T

U

V

W

X

Y

Z

Search

What

Where
 

XXX Maniak - "Cemetery Bukkake" Guitar Tab

Plain Text Version
More XXX Maniak Tabs

Hits: 2480
Updated: 2006-02-22 04:06:14

 

By:

Robbie Filth

sendpm.gif

email.gif

Important note
This tab is available online because we obtained explicit permission from XXX Maniak or their label.


#----------------------------------PLEASE NOTE---------------------------------#
#This file is the author's own work and represents their interpretation of the #
#song. You may only use this file for private study, scholarship, or research. #
#Unless specified otherwise, this is NOT an official tab from the band members.#
#------------------------------------------------------------------------------#

  Visit MetalTabs.com for more metal tablature
  
Band: XXX Maniak
Album: Split with Lymphatic Phlegm
Song: Cemetery Bukkake
Record Label: Black Hole Productions
Tuning: Bb Eb Ab Db F Bb

--------------------------------------
--------------------------------------
--------------------------------------
---4---------------4------------------
---------4-3---2--------4-----3-------
-----0-3-----3---3----2---3-2---2-0---X3

-------------------------------------
-------------------------------------
-------------------------------------
---5---------------3-----------------
---------4-3---2-------4-----3-------
-----0-3-----3---3---2---3-2---2-0---

-----------------
-----------------
-----------------
-----------------
-4-5-6--------2--
-------1-2-3--0--
 trem.......

THE END

any corrctions mail em to: septic_flesh241@hotmail.com

  Visit MetalTabs.com for more metal tablature

bottom separator

Contact Us | Privacy Policy | Disclaimer | Legal Notice
Copyright © 2001-2014 MetalTabs.com. All Rights Reserved.