top separator

Home

Forum

FAQ

Contact Us

Link to Us

MetalTabs.com logo

Bands

0-9

A

B

C

D

E

F

G

H

I

J

K

L

M

N

O

P

Q

R

S

T

U

V

W

X

Y

Z

Sepultura - "Manifest" Guitar Tab

Plain Text Version
More Sepultura Tabs

Hits: 964
Updated: 2006-02-22 04:02:37

By:


#----------------------------------PLEASE NOTE---------------------------------#
#This file is the author's own work and represents their interpretation of the #
#song. You may only use this file for private study, scholarship, or research. #
#Unless specified otherwise, this is NOT an official tab from the band members.#
#------------------------------------------------------------------------------#

  Visit MetalTabs.com for more metal tablature
  
Band - Sepultura
Album - Chaos A.D.
Song - Manifest
Author - fraberjam@hotmail.com

Note - this is really easy. all the parts are there. guitar 2 has it the
       easiest. if you have any questions or comments drop me an e-mail.

* = palm mute
d = dive to next note
^ = vibrato
~ = let ring
a = artificial harmonic
R = rest
h = hammer on
p = pull off
' = tremelo pick

Intro (guitars 1 & 2)
E|-------------------------||
B|-------------------------||
G|-------------------------||
D|-------------------------||
A|-------------------------||
E|-------------------------||

Intro 2 (guitars 1 & 2)
E|-------------------------|-------------------------|-------------------------|
B|-------------------------|-------------------------|-------------------------|
G|-------------------------|-------------------------|-------------------------|
D|-------------------------|-------------------------|-------------------------|
A|-5-----------------------|-------------------------|-------------------------|
E|-3-----------------------|-------------------------|-1-1-1-1-1---1-1-1-1-1---|
                                                       * * * * *   * * * * *
E|-------------------------||
B|-------------------------||
G|-------------------------||
D|-------------------------||
A|-------------------------||
E|-1-1-1-1-1---1-1-1-1-1---||
   * * * * *   * * * * *

Lead Into Next Section (guitar 2 only)
                           |1.                       |2.
E|-------------------------|-------------------------|-------------------------|
B|-21-21-21-21-21-21-21-21-|-21-21-21-21-21-21-21-21-|-21-21-21-21-21-21-21-17-|
G|-------------------------|-------------------------|-------------------------|
D|-------------------------|-------------------------|-------------------------|
A|-------------------------|-------------------------|-------------------------|
E|-------------------------|-------------------------|-------------------------|

Riff 1 (guitars 1 & 2)
E|---------------------------------|----|---------------------------------||
B|---------------------------------|-7x-|---------------------------------||
G|---------------------------------|----|---------------------------------||
D|-------------------------3---6---|----|-------------------------3-------||
A|-2---2-2-2---2-2-2-2-2---1---4---|----|-2---2-2-2---2-2-2-2-2---1---2---||
E|-0---0-0-0---0-0-0-0-0-----------|----|-0---0-0-0---0-0-0-0-0-------0---||
       * *                                    * *

Riff 2 (guitar 1)
E|-----------------|----||
B|-----------------|-8x-||
G|-----------------|----||
D|-----------------|----||
A|-6-----5-5---8-7-|----||
E|-4-----3-3---6-5-|----||

Riff 2 (guitar 2)
E|----------------22-------------------------------|
B|-22-22-22-21-21----21-21-21-21-21-21-21-21-21-21-|
G|-------------------------------------------------|
D|-------------------------------------------------|
A|-------------------------------------------------|
E|-------------------------------------------------|

E|-------------------------------------------------|
B|-21-21-21-21-21-21-21-21-21-21-21-21-21-21-21-21-|
G|-------------------------------------------------|
D|-------------------------------------------------|
A|-------------------------------------------------|
E|-------------------------------------------------|

E|-------------------------------------------------|
B|-21-17----21-17----21-17-21-21-21-21-21-21-21-21-|
G|-------------------------------------------------|
D|-------------------------------------------------|
A|-------------------------------------------------|
E|-------------------------------------------------|

E|-------------------------------------------------|
B|-21-21-21-21-21-21-21-21-21-17----21-21-21-21-21-|
G|-------------------------------------------------|
D|-------------------------------------------------|
A|-------------------------------------------------|
E|-------------------------------------------------|

E|-------------------------------------------------|----|
B|-21-21-21-21-21-21-21-21-21-21-21-21-21-21-21-21-|-3x-|
G|-------------------------------------------------|----|
D|-------------------------------------------------|----|
A|-------------------------------------------------|----|
E|-------------------------------------------------|----|

E|----------------------------------a--------------||
B|-21-21-21-21-21-21-21-21-21-17----17-17\\--------||
G|-------------------------------------------------||
D|-------------------------------------------------||
A|-------------------------------------------------||
E|-------------------------------------------------||

Play Riff 1

Riff 2a (guitar 1)
E|-----------------|----||
B|-----------------|-8x-||
G|-----------------|----||
D|-----------------|----||
A|-6-----5-5---8-7-|----||
E|-4-----3-3---6-5-|----||

Riff 2a (guitar 2)
E|----------------22-------------------------------|
B|-22-22-22-21-21----21-21-21-21-21-21-21-21-21-21-|
G|-------------------------------------------------|
D|-------------------------------------------------|
A|-------------------------------------------------|
E|-------------------------------------------------|

E|-------------------------------------------------|
B|-21-21-21-21-21-21-21-17-21-21-21-21-21-21-21-21-|
G|-------------------------------------------------|
D|-------------------------------------------------|
A|-------------------------------------------------|
E|-------------------------------------------------|

E|-------------------------------------------------|
B|-21-21-21-21-21-21-21-21-21-21-21-21-21-21-21-21-|
G|-------------------------------------------------|
D|-------------------------------------------------|
A|-------------------------------------------------|
E|-------------------------------------------------|

E|-------------------------------------------------|
B|-21-21-21-17-21-21-21-21-21-21-21-21-21-21-21-21-|
G|-------------------------------------------------|
D|-------------------------------------------------|
A|-------------------------------------------------|
E|-------------------------------------------------|

E|-22----------------------------------------------|
B|----21-21-21-21-21-21-21-21-21-21-21-21-21-21-21-|
G|-------------------------------------------------|
D|-------------------------------------------------|
A|-------------------------------------------------|
E|-------------------------------------------------|

E|-------------------------------------------------|
B|-21-21-21-21-21-21-21-21-21-21-21-21-21-21-21-21-|
G|-------------------------------------------------|
D|-------------------------------------------------|
A|-------------------------------------------------|
E|-------------------------------------------------|

E|----------------22----22-------------------------|
B|-21-21-21-21-21----21----21-21-21-21-21-21-21-21-|
G|-------------------------------------------------|
D|-------------------------------------------------|
A|-------------------------------------------------|
E|-------------------------------------------------|

E|-------------------------------------------------||
B|-21-21-21-21-21-21-21-21-21-21-21-21-21-17-------||
G|-------------------------------------------------||
D|-------------------------------------------------||
A|-------------------------------------------------||
E|-------------------------------------------------||

Riff 3 (guitars 1 & 2)
E|-----------------|-----------------|-----------------|-----------------|
B|-----------------|-----------------|-----------------|-----------------|
G|-----------------|-----------------|-----------------|-----------------|
D|---------9-8-----|-----------------|---------9-8-----|-----------------|
A|-6-5-----7-6-----|-----------------|-6-5-----7-6-----|-2---------------|
E|-4-3-------------|-8-7^^^^^^^------|-4-3-------------|-0---------------|

E|-----------------|-----------------|-----------------|-----------------|
B|-----------------|-----------------|-----------------|-----------------|
G|-----------------|-----------------|-----------------|-----------------|
D|---------9-8-----|-----------------|---------9-8-----|-----------------|
A|-6-5-----7-6-----|-----------------|-6-5-----7-6-----|-2---------------|
E|-4-3-------------|-8-7^^^^^^^------|-4-3-------------|-0---------------|

E|-----------------|-----------------||
B|-----------------| Bass For 7 Bars ||
G|-----------------|-----------------||
D|---R-------------|-----------------||
A|-2---------------|-----------------||
E|-0---------------|-----------------||

Riff 4 (guitar 1)
E|-----------------|-----------------|-------------------|-----------------|
B|-----------------|-----------------|-------------------|-----------------|
G|-----------------|-----------------|-------------------|-----------------|
D|-----------------|---3-3-3-3-3-3-3-|-------------------|---3-3-3-3-3-3-3-|
A|-4-4-4-2-2-2-5-5-|-5-1-1-1-1-1-1-1-|-4-4-4-2-2-2-5-5-5-|-5-1-1-1-1-1-1-1-|
E|-2-2-2-0-0-0-3-3-|-3---------------|-2-2-2-0-0-0-3-3-3-|-3---------------|

E|-----------------|-----------------|-------------------|-----------------||
B|-----------------|-----------------|-------------------|-----------------||
G|-----------------|-----------------|-------------------|-----------------||
D|-----------------|---3-3-3-3-3-3-3-|-------------------|---3-3-3-3-3-3-3-||
A|-4-4-4-2-2-2-5-5-|-5-1-1-1-1-1-1-1-|-4-4-4-2-2-2-5-5-5-|-5-1-1-1-1-1-1-1-||
E|-2-2-2-0-0-0-3-3-|-3---------------|-2-2-2-0-0-0-3-3-3-|-3---------------||

Riff 4 (guitar 2)
E|-------------------------|-------------------------|
B|-------------------------|-------------------------|
G|-14-14-14-14-14-15-13-13-|----14-14-14-14-14-14-12-|
D|-------------------------|-------------------------|
A|-------------------------|-------------------------|
E|-------------------------|-------------------------|

E|-------------------------|-------------------------|
B|-------------------------|-------------------------|
G|-14-14-14-14-14-13-13-13-|----14-14-14-14-12-14-12-|
D|-------------------------|-------------------------|
A|-------------------------|-------------------------|
E|-------------------------|-------------------------|

E|-------------------------|-------------------------|
B|-------------------------|-------------------------|
G|-14-14-14-14-14-13-13-13-|----14-14-14-14-14-14-16-|
D|-------------------------|-------------------------|
A|-------------------------|-------------------------|
E|-------------------------|-------------------------|

E|-------------------------|-------------------------||
B|-------------------------|-------------------------||
G|-15-15-15-15-15-14-14-14-|----15-15-15-15-12-15-12-||
D|-------------------------|-------------------------||
A|-------------------------|-------------------------||
E|-------------------------|-------------------------||

Riff 4a (guitars 1 & 2)
E|-----------------|-----------------|-------------------|-----------------|
B|-----------------|-----------------|-------------------|-----------------|
G|-----------------|-----------------|-------------------|-----------------|
D|-----------------|---3-3-3-3-3-3-3-|-------------------|---3-3-3-3-3-3-3-|
A|-4-4-4-2-2-2-5-5-|-5-1-1-1-1-1-1-1-|-4-4-4-2-2-2-5-5-5-|-5-1-1-1-1-1-1-1-|
E|-2-2-2-0-0-0-3-3-|-3---------------|-2-2-2-0-0-0-3-3-3-|-3---------------|

E|-----------------|-----------------|-------------------|-----------------||
B|-----------------|-----------------|-------------------|-----------------||
G|-----------------|-----------------|-------------------|-----------------||
D|-----------------|---3-3-3-3-3-3-3-|-------------------|---3-3-3-3-3-3-3-||
A|-4-4-4-2-2-2-5-5-|-5-1-1-1-1-1-1-1-|-4-4-4-2-2-2-5-5-5-|-5-1-1-1-1-1-1-1-||
E|-2-2-2-0-0-0-3-3-|-3---------------|-2-2-2-0-0-0-3-3-3-|-3---------------||

Riff 5 (guitars 1 & 2)
                   |1. 2. 3.         |4.
E|-----------------|-----------------|------------------||
B|-----------------|-----------------|------------------||
G|-----------------|-----------------|------------------||
D|-9\8-8-8-8-8-8-8-|-8/9\8-8-8-8-8-8-|-8/9\8-8-8-8-8\\\-||
A|-7\6-6-6-6-6-6-6-|-6/7\6-6-6-6-6-6-|-6/7\6-6-6-6-6\\\-||
E|-----------------|-----------------|------------------||

Riff 6 (guitars 1 & 2)
                   |1. 2. 3.         |4.
E|-----------------|-----------------|------------------||
B|-----------------|-----------------|------------------||
G|-----------------|-----------------|------------------||
D|---------R-------|-R---------------|------------------||
A|-3-2-2-2-----2-2-|-----------------|------------------||
E|-1-0-0-0-----0-0-|-----------------|-------------12\\-||

Riff 4a

Riff 6a (guitars 1 & 2)
E|-----------------|----||
B|-----------------|-8x-||
G|-----------------|----||
D|-----------------|----||
A|-3-------4-3-----|----||
E|-1-------2-1-----|----||
   *       * *

Solo Rhythm
   Play Riff 2a

Solo (lead)
E|-----------------------------------------------------------------------------|
B|-------12--------(12)\\------------------------------------------------------|
G|-14b--(14)-------(14)\\-/14^^^^^^--(14)\--/14^^^^(14)\-/14\--14d12-14d12-p12-|
D|-----------------------------------------------------------------------------|
A|-----------------------------------------------------------------------------|
E|-----------------------------------------------------------------------------|

E|-----------------------------------------------------------------------------|
B|-15^15^15^---15^15^15^16\--------------------------1h3p1---------------------|
G|----------12^--------------------------------0h2h3-------3p2p0---0h2p0-------|
D|---------------------------------------0h2h3-------------------3-------3p2p0-|
A|---------------------------------0h1h3---------------------------------------|
E|---------------------------0h1h3---------------------------------------------|

E|--------------------------------------------------------------||
B|--------------------------------------------------------------||
G|----------------------10d9-5d4-4d2----------------------------||
D|----------------------------------------5d4-------5d(7 steps)-||
A|-3^^^-2p0-----------------------------------------------------||
E|----------3^^^^^^^^^------------------------------------------||

Riff 2b (guitar 1)
E|-----------------|----||
B|-----------------|-8x-||
G|-----------------|----||
D|-----------------|----||
A|-6-----5-5---8-7-|----||
E|-4-----3-3---6-5-|----||

Riff 2b (guitar 2)
E|----------------22----------------------------|
B|-22----21-21-------21-21-21-21-21-21-21-21-21-|
G|----------------------------------------------|
D|----------------------------------------------|
A|----------------------------------------------|
E|----------------------------------------------|

E|-------------------------------------------------|----|
B|-21-21-21-21-21-21-21-21-21-21-21-21-21-21-21-21-|-5x-|
G|-------------------------------------------------|----|
D|-------------------------------------------------|----|
A|-------------------------------------------------|----|
E|-------------------------------------------------|----|

E|----------22----22-------------------------------|
B|-21-21-21----21----21-21-21-21-21-21-21-21-21-21-|
G|-------------------------------------------------|
D|-------------------------------------------------|
A|-------------------------------------------------|
E|-------------------------------------------------|

E|-------------------------------------------------||
B|-21-21-21-21-21-21-21-21-21-21-21-17-------------||
G|-------------------------------------------------||
D|-------------------------------------------------||
A|-------------------------------------------------||
E|-------------------------------------------------||

Riff 7 (guitars 1 & 2)
E|-----------------|-----------------|-----------------|-----------------|
B|-----------------|-----------------|-----------------|-----------------|
G|-----------------|-----------------|-----------------|-----------------|
D|-----------------|-----------------|-----------------|-----------------|
A|-5---------------|----------5------|-2---------------|-----------------|
E|-3---------------|----------3------|-0---------------|-----------------|

E|-----------------|-----------------|-----------------|-----------------||
B|-----------------|-----------------|-----------------|-----------------||
G|-----------------|-----------------|-----------------|-----------------||
D|-----------------|-----------------|-----------------|-----------------||
A|-5---------------|----------5------|-2---------------|-----------------||
E|-3---------------|----------3------|-0---------------|-----------------||

Riff 7a (guitar 1)
E|-----------------|-----------------|-----------------|-----------------|
B|-----------------|-----------------|-----------------|-----------------|
G|-----------------|-----------------|-----------------|-----------------|
D|-----------------|-----------------|-----------------|-----------------|
A|-5---------------|----------5------|-2---------------|-----------------|
E|-3---------------|----------3------|-0---------------|-----------------|

E|-----------------|-----------------|-----------------|-----------------||
B|-----------------|-----------------|-----------------|-----------------||
G|-----------------|-----------------|-----------------|-----------------||
D|-----------------|-----------------|-----------------|-----------------||
A|-5---------------|----------5------|-2---------------|-----------------||
E|-3---------------|----------3------|-0---------------|-----------------||

Riff 7a (guitar 2)
E|-----------------|-----------------|-----------------|-----------------|
B|-----------------|-----------------|-----------------|-----------------|
G|-13-----15----16-|----15-----13----|-18----------16--|---15-----16-\\--|
D|-----------------|-----------------|-----------------|-----------------|
A|-11-----13----14-|----13-----11----|-16----------14--|---13-----14-\\--|
E|-----------------|-----------------|-----------------|-----------------|
                                                           
E|-----------------|-----------------|-----------------|-----------------||
B|-----------------|-----------------|-----------------|-----------------||
G|-13-----15----16-|----15-----13-\\-|-11-----12----11-|----8------9--\\-||
D|-----------------|-----------------|-----------------|-----------------||
A|-11-----13----14-|----13-----11-\\-|--9-----10-----9-|----6------7--\\-||
E|-----------------|-----------------|-----------------|-----------------||
                                                          

Riff 2c (guitar 1)
E|-----------------|----||
B|-----------------|-8x-||
G|-----------------|----||
D|-----------------|----||
A|-6-----5-5---8-7-|----||
E|-4-----3-3---6-5-|----||

Riff 2c (guitar 2)
E|----------------22----------------------------|
B|-22----21-21-------21-21-21-21-21-21-21-21-21-|
G|----------------------------------------------|
D|----------------------------------------------|
A|----------------------------------------------|
E|----------------------------------------------|

E|-------------------------------------------------|----|
B|-21-21-21-21-21-21-21-21-21-21-21-21-21-21-21-21-|-5x-|
G|-------------------------------------------------|----|
D|-------------------------------------------------|----|
A|-------------------------------------------------|----|
E|-------------------------------------------------|----|

E|----------22----22-------------------------------|
B|-21-21-21----21----21-21-21-21-21-21-21-21-21-21-|
G|-------------------------------------------------|
D|-------------------------------------------------|
A|-------------------------------------------------|
E|-------------------------------------------------|

E|-------------------------------------------------||
B|-21-21-21-21-21-21-21-21-21-21-21-21-21-21-21-21-||
G|-------------------------------------------------||
D|-------------------------------------------------||
A|-------------------------------------------------||
E|-------------------------------------------------||

Riff 7b (guitar 1)
E|-----------------|-----------------|-----------------||
B|-----------------|-----------------|-----------------||
G|-----------------|-----------------|-----------------||
D|-----------------|-----------------|-R---------------||
A|-5---------------|---------------5-|-----------------||
E|-3---------------|---------------3-|-----------------||

Riff 7b
E|-------------------------------------------------------------------------||
B|-21-21-21-21-21-21-21-21-21-21-21-21-21-21-21-21-21-21-21-21-21-21-21-21-||
G|-------------------------------------------------------------------------||
D|-------------------------------------------------------------------------||
A|-------------------------------------------------------------------------||
E|-------------------------------------------------------------------------||

Play Riff 6a

Riff 6b (guitar 1 [let last note ring])
E|-----------------|----|-----------------||
B|-----------------|-7x-|-----------------||
G|-----------------|----|-----------------||
D|-----------------|----|-----------------||
A|-3-------4-3-----|----|-3-------4-2~~---||
E|-1-------2-1-----|----|-1-------2-0~~---||
   *       * *            *       *

Riff 6b (guitar 2)
E|-----------------|----|------------------------------||
B|-----------------|-7x-|------------21-21-21-21-21-21-||
G|-----------------|----|------------------------------||
D|-----------------|----|------------------------------||
A|-3-------4-3-----|----|------------------------------||
E|-1-------2-1-----|----|------------------------------||
   *       * *

Ending (guitar 2)
E|-------------------------------------------------|----||
B|-21-21-21-21-21-21-21-21-21-21-21-21-21-21-21-21-|-9x-||
G|-------------------------------------------------|----||
D|-------------------------------------------------|----||
A|-------------------------------------------------|----||
E|-------------------------------------------------|----||

  Visit MetalTabs.com for more metal tablature

bottom separator

Contact Us | Privacy Policy | Disclaimer
Copyright © 2001-2014 MetalTabs.com. All Rights Reserved.