top separator

Home

Forum

What's New

Submit a Tab

FAQ

Links

Contact Us

Link to Us

MetalTabs.com logo

Bands

0-9

A

B

C

D

E

F

G

H

I

J

K

L

M

N

O

P

Q

R

S

T

U

V

W

X

Y

Z

Search

What

Where
 

Psycroptic - "Epoch of the Gods" Guitar Tab

Plain Text Version
More Psycroptic Tabs

Hits: 3645
Updated: 2006-02-11 07:31:23

 

By:

Cloaca

sendpm.gif

email.gif

Important note
This tab is available online because we obtained explicit permission from Psycroptic or their label.


#----------------------------------PLEASE NOTE---------------------------------#
#This file is the author's own work and represents their interpretation of the #
#song. You may only use this file for private study, scholarship, or research. #
#Unless specified otherwise, this is NOT an official tab from the band members.#
#------------------------------------------------------------------------------#

  Visit MetalTabs.com for more metal tablature
  
Psycroptic - 'Epoch Of The Gods'
Symbols Of Failure (2006)
Neurotic Records

Tabbed by Tim Snowsill (Tim_Snowsill@hotmail.com)
02/02/06

________________________________________________________________________________
Tab Rhythm is hardly perfect so listen to CD. Any comments or corrections can be
e-mailed to above address.

________________________________________________________________________________

Gtr I (D A D G B E) - 'Joe Haley'
Gtr II (D A D G B E) - 'Joe Haley'



Riff 1 (0:00)
  Q=240
 4/4
  Gtr I
  PM----------------------------|
  S S S S S S S S S S S S S S S S   W
|---------------------------------|----------|
|---------------------------------|----------|
|---------------------------------|----------|
|---------------------------------|----------|
|---------------------------------|-0--------|
|-1-1-1-1-1-1-1-1-1-1-1-1-1-1-1-1-|-0--------|
|
| Gtr II
| PM----------------------------|
| S S S S S S S S S S S S S S S S   W
|---------------------------------|----------|
|---------------------------------|----------|
|---------------------------------|----------|
|---------------------------------|----------|
|---------------------------------|-0--------|
|-1-1-1-1-1-1-1-1-1-1-1-1-1-1-1-1-|-0--------|


  W          W            +W
|----------|------------|----------------|
|----------|------------|----------------|
|----------|------------|----------------|
|----------|------------|----------------|
|-1--------|-2----------|-(2)------------|
|-1--------|-4----------|-(4)------------|
|
| W          H    Q  Q     Q   Q  Q  Q
|----------|------------|----------------|
|----------|------------|----------------|
|----------|------------|--0------0------|
|----------|------4-----|------4-----4---|
|-1--------|-2-------2--|----------------|
|-1--------|-4----------|----------------|


  Gtr I
                                             PM------------|
  W          W          W            +H      S S S S S S S S
|----------|----------|------------|-------------------------|
|----------|----------|------------|-------------------------|
|----------|----------|------------|-------------------------|
|----------|----------|------------|-------------------------|
|-0--------|-1--------|-2----------|-(2)---------------------|
|-0--------|-1--------|-4----------|-(4)-----4-4-4-4-4-4-4-4-|
|
| Gtr II
|                                            PM------------|
| W          W          H    Q  Q     Q   Q  S S S S S S S S
|----------|----------|------------|-------------------------|
|----------|----------|------------|-------------------------|
|----------|----------|------------|--0----------------------|
|----------|----------|------4-----|------4------------------|
|-0--------|-1--------|-2-------2--|-------------------------|
|-0--------|-1--------|-4----------|---------4-4-4-4-4-4-4-4-|


  Gtr I
  W          W          W            +W
|----------|----------|------------|---------------|
|----------|----------|------------|---------------|
|----------|----------|------------|---------------|
|----------|----------|------------|---------------|
|-0--------|-1--------|-2----------|-(2)-----------|
|-0--------|-1--------|-4----------|-(4)-----------|
|
| Gtr II
| W          W          H    Q  Q     Q   Q  Q  Q
|----------|----------|------------|---------------|
|----------|----------|------------|---------------|
|----------|----------|------------|--0------0-----|
|----------|----------|------4-----|------4-----4--|
|-0--------|-1--------|-2-------2--|---------------|
|-0--------|-1--------|-4----------|---------------|


  Gtr I
                     PM
  W          H.      Q    Q  Q  H      +H       Q   Q
|----------|------------|------------|-----------------|
|----------|------------|------------|-----------------|
|----------|------------|------------|-----------------|
|----------|------------|------------|-----------------|
|-0--------|-1-------0--|-4--5--4----|-(4)-------------|
|-0--------|-1-------0--|-4--5--4----|-(4)\----(1)-----|
|
| Gtr II
|                    PM
| W          H.      Q    Q  Q  H      +H       Q   Q
|----------|------------|------------|-----------------|
|----------|------------|------------|-----------------|
|----------|------------|------------|-----------------|
|----------|------------|------------|-----------------|
|-0--------|-1-------0--|-4--5--4----|-(4)-------------|
|-0--------|-1-------0--|-4--5--4----|-(4)\----(1)-----|


 Riff 2 (0:18)
  Q=230
  Gtr I
  ~           PM----------------------|   ~    ~~~~   PM|                ~~~
                                                            |-3-| |-3-|
  Q  E Q    E E E   E E E E S S E S S E   Q  E Q    E E E   E E E E E E  H
|-----------------|---------------------|-----------------|--------------------|
|-----------------|---------------------|-----------------|--------------------|
|-----------------|---------------------|-----------------|--------------------|
|-----------------|---------------------|-----------------|--------------------|
|----5------------|---------------------|----5------------|-6-5-3--------------|
|-6----6b7r=0-0-0-|-0-0-0-0-0-0-0-0-0-0-|-6----6b7r=0-0-0-|-------6-5-3--4-----|
|
| Gtr II
| ~           PM----------------------|   ~    ~~~~   PM|                ~~~
|                                                           |-3-| |-3-|
| Q  E Q    E E E   E E E E S S E S S E   Q  E Q    E E E   E E E E E E  H
|-----------------|---------------------|-----------------|--------------------|
|-----------------|---------------------|-----------------|--------------------|
|-----------------|---------------------|-----------------|--------------------|
|-----------------|---------------------|-----------------|--------------------|
|----5------------|---------------------|----5------------|-6-5-3--------------|
|-6----6b7r=0-0-0-|-0-0-0-0-0-0-0-0-0-0-|-6----6b7r=0-0-0-|-------6-5-3-[4]----|


  Gtrs I, II
  ~    ~~~~   PM----------------------|
  Q  E Q    E E E   E E E E S S E S S E
|-----------------|---------------------|
|-----------------|---------------------|
|-----------------|---------------------|
|-----------------|---------------------|
|----5------------|---------------------|
|-6----6b7r=0-0-0-|-0-0-0-0-0-0-0-0-0-0-|


  ~    ~~~~   PM--------------------------|
                    |-3-| |-3-| |-3-| |-3-|
  Q  E Q    E E E   E E E E E E E E E E E E
|-----------------|-------------------------|
|-----------------|-------------------------|
|-----------------|-------------------------|
|-----------------|-------------------------|
|----5------------|-------5-----------5h6h9-|
|-6----6b7r=0-0-0-|-5h6h9---9p6-5h6h9-------|


  Gtrs I, II
   ~~~                 PM----|             PM|       PM|     PM|
   W           E E E E E E E E   Q  E Q  E E E   E E E E E E E E
|------------|-----------------|---------------|-----------------|
|------------|-----------------|---------------|-----------------|
|------------|-----------------|---------------|-----------------|
|-[5]--------|-----------------|---------------|-5-7-----7-8-----|
|------------|-5---------------|---------------|-3-5-----5-6-----|
|------------|---7-6p0-0-0-0-0-|-6--7-6--0-0-0-|-----0-0-----0-0-|


  ~    ~~~~   PM----------------------|
  Q  E Q    E E E   E E E E S S E S S E
|-----------------|---------------------|
|-----------------|---------------------|
|-----------------|---------------------|
|-----------------|---------------------|
|----5------------|---------------------|
|-6----6b7r=0-0-0-|-0-0-0-0-0-0-0-0-0-0-|


  ~    ~~~~   PM|               PM--------|
                    |-3-| |-3-| |-3-| |-3-|
  Q  E Q    E E E   E E E E E E E E E E E E
|-----------------|-------------------------|
|-----------------|-------------------------|
|-----------------|-------------------------|
|-----------------|-------------------5h6h9-|
|----5------------|-------5h6h9-5h6h9-------|
|-6----6b7r=0-0-0-|-5h6h9-------------------|


 Riff 1a (0:34)
  Q=240
  Gtr I
  W          W          W            +W
|----------|----------|------------|------------|
|----------|----------|------------|------------|
|----------|----------|------------|------------|
|----------|----------|------------|------------|
|-0--------|-1--------|-2----------|-(2)--------|
|-0--------|-1--------|-4----------|-(4)--------|
|
| Gtr II
| W          W          H    Q  Q     Q   H.
|----------|----------|------------|------------|
|----------|----------|------------|------------|
|----------|----------|------------|--0---------|
|----------|----------|------4-----|------4-----|
|-0--------|-1--------|-2-------2--|------------|
|-0--------|-1--------|-4----------|------------|


  Gtrs I, II
  W          W          W          H    Q  Q
|----------|----------|----------|------------|
|----------|----------|----------|------------|
|----------|----------|----------|------------|
|----------|----------|----------|------3-----|
|-1--------|-4--------|-3--------|-1----1-----|
|-3--------|-6--------|-5--------|-1----------|


 Riff 3 (0:43)
  Gtrs I, II
  PM------------| ~  PM-------------|
  S S S S S S S S Q  E E    E E E E E  E E E
|------------------------|-------------------|
|------------------------|-------------------|
|------------------------|-------------------|
|------------------------|-------------------|
|------------------------|----7-------10p9---|
|-2-2-2-2-2-2-2-2-5--0-7-|-10---7-7-7------0-|


  Gtrs I, II
  PM------------| ~  PM----|       PM-------|
  S S S S S S S S Q  E E    E  E E E E E  E E
|------------------------|--------------------|
|------------------------|--------------------|
|------------------------|--------------------|
|------------------------|--------------------|
|------------------------|----10p9---9-6------|
|-2-2-2-2-2-2-2-2-5--0-7-|-12------0-----10-7-|


  Gtrs I, II
  PM--------------------------|     PM----|   PM----|
  S S E S S S S S S S S S S S S   E S S S S E S S S S  Q
|-------------------------------|--------------------------|
|-------------------------------|--------------------------|
|-------------------------------|--------------------------|
|-------------------------------|--------------------------|
|-6-5-3-------------------------|--------------------------|
|-------4-4-4-4-4-4-4-4-4-4-4-4-|-5-5-5-5-5-8-8-8-8-8-10\--|


  Gtrs I, II
    PM------------------|
  E E E E S S E S S E   E Q.   E Q.
|---------------------|---------------|
|---------------------|---------------|
|---------------------|---------------|
|---------------------|---------------|
|---------3-3-3-1-1-1-|---6------7----|
|-2-2-2-2-3-3-3-3-3-3-|-0-6----0-7----|


   Riff 4 (0:51)
    Gtrs I, II
    PM----------~    PM------------~
    S S S S S S Q  E S S S S   S S Q  E E E E E
||---------------------------|------------------|
||o--------------------------|------------------|
||---------------------------|------------------|
||---------------------------|------------------|
||o--------------------------|----------5-------|
||--6-6-6-6-6-6-6--0-6-6-6-6-|-6-6-6--0---6h7-0-|


  Gtrs I, II
  E  E E  E  E E  E  E   E E E E E E Q
|----------------------|----------------|
|----------------------|----------------|
|----------------------|----------------|
|----------------------|-6-------4------|
|--------------9-------|----------------|
|-7-10-0h10-11---11p10-|---7-7-6---6-3--|


  Gtrs I, II
  PM----------~    PM------------~
  S S S S S S Q  E S S S S   S S Q  E E E E E
|--------------------------|------------------|
|--------------------------|------------------|
|--------------------------|------------------|
|--------------------------|------------------|
|--------------------------|------------------|
|-6-6-6-6-6-6-6--0-6-6-6-6-|-6-6-6--0-0-6-7p0-|


  Gtrs I, II
  E  E E E E E E E   E E E E E E Q
|------------------|-----------------||
|------------------|----------------o||
|------------------|-----------------||
|------------------|-----------------||
|------------------|-3p0-------6----o||
|-7h10-0-6h7-0-4h6-|-----7-6-3---3---||


 Riff 3 (0:43)
  Gtrs I, II
  PM------------| ~  PM-------------|
  S S S S S S S S Q  E E    E E E E E  E E E
|------------------------|-------------------|
|------------------------|-------------------|
|------------------------|-------------------|
|------------------------|-------------------|
|------------------------|----7-------10p9---|
|-2-2-2-2-2-2-2-2-5--0-7-|-10---7-7-7------0-|


  Gtrs I, II
  PM------------| ~  PM----|       PM-------|
  S S S S S S S S Q  E E    E  E E E E E  E E
|------------------------|--------------------|
|------------------------|--------------------|
|------------------------|--------------------|
|------------------------|--------------------|
|------------------------|----10p9---9-6------|
|-2-2-2-2-2-2-2-2-5--0-7-|-12------0-----10-7-|


  Gtrs I, II
  PM--------------------------|     PM----|   PM----|
  S S E S S S S S S S S S S S S   E S S S S E S S S S  Q
|-------------------------------|--------------------------|
|-------------------------------|--------------------------|
|-------------------------------|--------------------------|
|-------------------------------|--------------------------|
|-6-5-3-------------------------|--------------------------|
|-------4-4-4-4-4-4-4-4-4-4-4-4-|-5-5-5-5-5-8-8-8-8-8-10\--|


  Gtrs I, II
    PM------------------|
  E E E E S S E S S E   E Q.   E Q.
|---------------------|---------------|
|---------------------|---------------|
|---------------------|---------------|
|---------------------|---------------|
|---------3-3-3-1-1-1-|---6------7----|
|-2-2-2-2-3-3-3-3-3-3-|-0-6----0-7----|


 Riff 5 (1:16)
  Gtr I
  H    Q  Q     W           +W           +W
|------------|------------|------------|--------|
|------------|------------|------------|--------|
|------------|------------|------------|--------|
|---------6--|--5---------|-(5)--------|-(5)----|
|------4-----|------------|------------|--------|
|------------|------------|------------|--------|
|
| Gtr II
| W            +W           +W           +W
|------------|------------|------------|--------|
|------------|------------|------------|--------|
|------------|------------|------------|--------|
|------------|------------|------------|--------|
|-4----------|-(4)--------|-(4)--------|-(4)----|
|-6----------|-(6)--------|-(6)--------|-(6)----|


  Gtr I
  H    Q  Q     Q   Q  H      +W           +W
|------------|--------------|------------|--------|
|------------|--------------|------------|--------|
|------------|--------------|------------|--------|
|---------6--|--5---0-------|------------|--------|
|------4-----|---------4----|-(4)--------|-(4)----|
|------------|--------------|------------|--------|
|
| Gtr II
| W            +W             +W           +W
|------------|--------------|------------|--------|
|------------|--------------|------------|--------|
|------------|--------------|------------|--------|
|------------|--------------|------------|--------|
|-4----------|-(4)----------|-(4)--------|-(4)----|
|-6----------|-(6)----------|-(6)--------|-(6)----|


  Gtr I
  H    Q  Q     Q   Q  H      +W           +W
|------------|--------------|------------|--------|
|------------|--------------|------------|--------|
|------------|--------------|------------|--------|
|---------6--|--5---0-------|------------|--------|
|------4-----|---------4----|-(4)--------|-(4)----|
|------------|--------------|------------|--------|
|
| Gtr II
| W            +W             +W           +W
|------------|--------------|------------|--------|
|------------|--------------|------------|--------|
|------------|--------------|------------|--------|
|------------|--------------|------------|--------|
|-4----------|-(4)----------|-(4)--------|-(4)----|
|-6----------|-(6)----------|-(6)--------|-(6)----|


  Gtr I
                              PM--|    PM----|       PM---|   PM|
  H    Q  Q     Q   Q  H      E E E  E E E E E   E E E  E E E E E
|------------|--------------|------------------|------------------|
|------------|--------------|------------------|------------------|
|------------|--------------|------------------|------------------|
|---------6--|--5---0-------|------------------|------------------|
|------4-----|---------4----|---0-2--6-2-0-----|-6-5--------5-----|
|------------|--------------|-6------------6-5-|-----5--4-2---2-0-|
|
| Gtr II
| W            +W             q   H.             E E H.
|------------|--------------|------------------|------------------|
|------------|--------------|------------------|------------------|
|------------|--------------|------------------|------------------|
|------------|--------------|------------------|------------------|
|-4----------|-(4)----------|-4----------------|-6-5--------------|
|-6----------|-(6)----------|-6----------------|------------------|


   Riff 6 (1:33)
    Gtrs I, II
                    PM----|                     PM  PM
    S S S S S S S S E E E E   S S S S S S S S E E E E
||--------------------------|-------------------------|
||o-------------------------|-------------------------|
||--------------------------|-------------------------|
||--------------------------|-------------------------|
||o-5-5-5-5-5-5-5-5---------|-6-6-6-6-6-6-6-6-2---2---|
||------------------0-1-0-1-|-------------------6---6-|


     PM--|   PM----|     PM
  Q  E E E E E E   E E E E E E E E
|----------------|-----------------|
|----------------|-----------------|
|----------------|-----------------|
|----------------|---6S7-----------|
|----------3-----|---4S5---6-7-6-3-|
|----3-5-6---6-5-|-0-----0-8-9-8-5-|


  Gtrs I, II
                                     PM        PM--| ~       PM----|
  Q   S S S S E E Q    E E E E E E E E   Q  Q  S S E Q    Q  S S S S H     3x
|--------------------|-----------------|----------------|------------------||
|--------------------|-----------------|----------------|-----------------o||
|--------------------|-----------------|----------------|------------------||
|--------------------|-----------------|-7--8-----------|------------------||
|-4\--------------0--|-5-------5-------|-5--6--------3--|-4----------0----o||
|-6\--0-0-0-0-0---0--|---5h6h9---9p6-0-|-------0-0-0----|-4--0-0-0-0-0-----||


  Gtrs I, II
  PM--|   PM----|
  E E E E E E E E   E E H.
|-----------------|-----------|
|-----------------|-----------|
|-----------------|-----------|
|-----------------|-----------|
|---0-2-6-2-0-----|-6-5-------|
|-6-----------6-5-|-----------|


 Riff 7 (2:00)
  Q=180
  Gtr I
  PM--|     PM--|         PM|     PM--|       PM----|         PM
  E E E E E E E E   E E E E E E E E   E E E E E E E E   E E E E E E E E
|-----------------|-----------------|-----------------|-----------------|
|-----------------|-----------------|-----------------|-----------------|
|-----------------|-----------------|-----------------|-----------------|
|-----------------|-----------------|-----------------|-----------------|
|-0-0-0-2-1-0-0-0-|-1-3-2-0-0-2-1-0-|-0-3-2-1-0-0-0-0-|-6-5-4-0-3S2-2S1-|
|-0-0-0-2-1-0-0-0-|-1-3-2-0-0-2-1-0-|-0-3-2-1-0-0-0-0-|-6-5-4-0-5S4-4S3-|
|
| Gtr II
| W                 W                 W                 W
|-----------------|-----------------|-----------------|-----------------|
|-----------------|-----------------|-----------------|-----------------|
|-----------------|-----------------|-----------------|-----------------|
|-----------------|-----------------|-----------------|-----------------|
|-----------------|-----------------|-----------------|-----------------|
|-----------------|-----------------|-----------------|-----------------|


  Gtrs I, II
  PM--|     PM--|         PM|     PM--|       PM                PM--|   PM
  E E E E E E E E   E E E E E E E E   E E E E E E E E    E  S S E E E E Q
|-----------------|-----------------|-----------------|---------------------|
|-----------------|-----------------|-----------------|---------------------|
|-----------------|-----------------|-----------------|---------------------|
|-----------------|-----------------|-----------------|---------------------|
|-0-0-0-2-1-0-0-0-|-1-3-2-0-0-2-1-0-|-0-3-2-1-0-6-5-4-|-[5]-6p5-------6-----|
|-0-0-0-2-1-0-0-0-|-1-3-2-0-0-2-1-0-|-0-3-2-1-0-6-5-4-|---------8-7-5---5---|


    Gtrs I, II
    PM--|     PM--|         PM|     PM--|       PM----|         PM
    E E E E E E E E   E E E E E E E E   E E E E E E E E   E E E E E E E E
||------------------|-----------------|-----------------|------------------|
||o-----------------|-----------------|-----------------|------------------|
||------------------|-----------------|-----------------|------------------|
||------------------|-----------------|-----------------|------------------|
||o-0-0-0-2-1-0-0-0-|-1-3-2-0-0-2-1-0-|-0-3-2-1-0-0-0-0-|-6-5-4-0-3S2-2S1--|
||--0-0-0-2-1-0-0-0-|-1-3-2-0-0-2-1-0-|-0-3-2-1-0-0-0-0-|-6-5-4-0-5S4-4S3--|


  Gtrs I, II
  PM--|     PM--|         PM|     PM--|       PM                PM--|   PM
  E E E E E E E E   E E E E E E E E   E E E E E E E E    E  S S E E E E Q
|-----------------|-----------------|-----------------|----------------------||
|-----------------|-----------------|-----------------|---------------------o||
|-----------------|-----------------|-----------------|----------------------||
|-----------------|-----------------|-----------------|----------------------||
|-0-0-0-2-1-0-0-0-|-1-3-2-0-0-2-1-0-|-0-3-2-1-0-6-5-4-|-[5]-6p5-------6-----o||
|-0-0-0-2-1-0-0-0-|-1-3-2-0-0-2-1-0-|-0-3-2-1-0-6-5-4-|---------8-7-5---5----||


 Riff 1a (2:35)
  Q=240
  Gtr I
  PM----------------------------|
  S S S S S S S S S S S S S S S S   W
|---------------------------------|----------|
|---------------------------------|----------|
|---------------------------------|----------|
|---------------------------------|----------|
|---------------------------------|-0--------|
|-1-1-1-1-1-1-1-1-1-1-1-1-1-1-1-1-|-0--------|
|
| Gtr II
| PM----------------------------|
| S S S S S S S S S S S S S S S S   W
|---------------------------------|----------|
|---------------------------------|----------|
|---------------------------------|----------|
|---------------------------------|----------|
|---------------------------------|-0--------|
|-1-1-1-1-1-1-1-1-1-1-1-1-1-1-1-1-|-0--------|


  W          W            +W
|----------|------------|-----------------|
|----------|------------|-----------------|
|----------|------------|-----------------|
|----------|------------|-----------------|
|-1--------|-2----------|-(2)-------------|
|-1--------|-4----------|-(4)-------------|
|
| W          H    Q  Q     Q   Q  Q  Q
|----------|------------|-----------------|
|----------|------------|-----------------|
|----------|------------|--0------0-------|
|----------|------4-----|------4-----4----|
|-1--------|-2-------2--|-----------------|
|-1--------|-4----------|-----------------|


  Gtr I
                                             PM------------|
  W          W          W            +H      S S S S S S S S
|----------|----------|------------|-------------------------|
|----------|----------|------------|-------------------------|
|----------|----------|------------|-------------------------|
|----------|----------|------------|-------------------------|
|-0--------|-1--------|-2----------|-(2)---------------------|
|-0--------|-1--------|-4----------|-(4)-----4-4-4-4-4-4-4-4-|
|
| Gtr II
|                                            PM------------|
| W          W          H    Q  Q     Q   Q  S S S S S S S S
|----------|----------|------------|-------------------------|
|----------|----------|------------|-------------------------|
|----------|----------|------------|--0----------------------|
|----------|----------|------4-----|------4------------------|
|-0--------|-1--------|-2-------2--|-------------------------|
|-0--------|-1--------|-4----------|---------4-4-4-4-4-4-4-4-|


  Gtr I
  W          W          W            +W
|----------|----------|------------|---------------|
|----------|----------|------------|---------------|
|----------|----------|------------|---------------|
|----------|----------|------------|---------------|
|-0--------|-1--------|-2----------|-(2)-----------|
|-0--------|-1--------|-4----------|-(4)-----------|
|
| Gtr II
| W          W          H    Q  Q     Q   Q  Q  Q
|----------|----------|------------|---------------|
|----------|----------|------------|---------------|
|----------|----------|------------|--0------0-----|
|----------|----------|------4-----|------4-----4--|
|-0--------|-1--------|-2-------2--|---------------|
|-0--------|-1--------|-4----------|---------------|


  Gtr I
                     PM
  W          H.      Q    Q  Q  H      W
|----------|------------|------------|------|
|----------|------------|------------|------|
|----------|------------|------------|------|
|----------|------------|------------|------|
|-0--------|-1-------0--|-4--5--4----|------|
|-0--------|-1-------0--|-4--5--4----|------|
|
| Gtr II
|                    PM
| W          H.      Q    Q  Q  H      W
|----------|------------|------------|------|
|----------|------------|------------|------|
|----------|------------|------------|------|
|----------|------------|------------|------|
|-0--------|-1-------0--|-4--5--4----|------|
|-0--------|-1-------0--|-4--5--4----|------|


 Riff 4a (2:53)
  Gtr I
  PM----------~    PM------------~
  S S S S S S Q  E S S S S   S S Q  E E E E E
|--------------------------|------------------|
|--------------------------|------------------|
|--------------------------|------------------|
|--------------------------|------------------|
|--------------------------|------------------|
|-6-6-6-6-6-6-6--0-6-6-6-6-|-6-6-6--0-0-6-7p0-|
|
| Gtr II
| W                          H        E E E E
|--------------------------|------------------|
|--------------------------|------------------|
|--------------------------|------------------|
|--------------------------|------------------|
|--------------------------|------------------|
|--------------------------|----------0-6h7-0-|


  Gtrs I, II
  E  E E  E  E E  E  E   E E E E E E Q
|----------------------|----------------|
|----------------------|----------------|
|----------------------|----------------|
|----------------------|-6--------------|
|--------------9-------|----------------|
|-7h10-0-10h11---11p10-|---7-7-6-4-6-3--|


  Gtrs I, II
  PM----------~    PM------------~
  S S S S S S Q  E S S S S   S S Q  E E E E E
|--------------------------|------------------|
|--------------------------|------------------|
|--------------------------|------------------|
|--------------------------|------------------|
|--------------------------|------------------|
|-6-6-6-6-6-6-6--0-6-6-6-6-|-6-6-6--0-0-6-7p0-|


  Gtrs I, II
  E  E E E E E E E   E E E E E E Q
|------------------|----------------|
|------------------|----------------|
|------------------|----------------|
|------------------|----------------|
|------------------|-3p0-------6----|
|-7h10-0-6h7-0-4h6-|-----7-6-3---3--|


  Gtrs I, II
  PM----------~    PM------------~
  S S S S S S Q  E S S S S   S S Q  E E E E E
|--------------------------|------------------|
|--------------------------|------------------|
|--------------------------|------------------|
|--------------------------|------------------|
|--------------------------|------------------|
|-6-6-6-6-6-6-6--0-6-6-6-6-|-6-6-6--0-0-6-7p0-|


  Gtrs I, II
  E  E E  E  E E  E  E   E E E E E E Q
|----------------------|----------------|
|----------------------|----------------|
|----------------------|----------------|
|----------------------|-6--------------|
|--------------9-------|----------------|
|-7h10-0-10h11---11p10-|---7-7-6-4-6-3--|


  Gtrs I, II
  PM----------~    PM------------~
  S S S S S S Q  E S S S S   S S Q  E E E E E
|--------------------------|------------------|
|--------------------------|------------------|
|--------------------------|------------------|
|--------------------------|------------------|
|--------------------------|------------------|
|-6-6-6-6-6-6-6--0-6-6-6-6-|-6-6-6--0-0-6h7-0-|


  Gtrs I, II
  E  E E E E E E E   E E E E E E Q
|------------------|----------------|
|------------------|----------------|
|------------------|----------------|
|------------------|----------------|
|------------------|-3p0-------6----|
|-7h10-0-6h7-0-4h6-|-----7-6-3---3--|


   Riff 8 (3:09)
    Q=260
            PM                       PM           PM
    H.      q    W          +H.      q    H.      Q
||-------------|----------|-------------|-------------|
||o------------|----------|-------------|-------------|
||-------------|----------|-------------|-------------|
||-------------|----------|-------------|-------------|
||o-1-------2--|-2--------|-(2)------1--|-1-----------|
||--3-------4--|-4--------|-(4)------3--|-3-------0---|


  Gtrs I, II
                                  PM            PM
  H    H      W          +H.      Q    Q  Q  Q  Q
|-----------|----------|-------------|-------------|
|-----------|----------|-------------|-------------|
|-----------|----------|-------------|-------------|
|-----------|----------|-------------|-------------|
|-4----0----|-0--------|-(0)---------|-5S=1--1-----|
|-4----0----|-0--------|-(0)------0--|-7S=3--3--0--|


          PM                       PM           PM
  H.      q    W          +H.      q    H.      Q
|------------|----------|-------------|------------|
|------------|----------|-------------|------------|
|------------|----------|-------------|------------|
|------------|----------|-------------|------------|
|-1-------2--|-2--------|-(2)------1--|-1----------|
|-3-------4--|-4--------|-(4)------3--|-3-------0--|


  Gtrs I, II
                                  PM                PM
  H    H      W          Q  Q  Q  Q     Q   Q   Q   Q   3x
|-----------|----------|-------------|------------------||
|-----------|----------|-------------|-----------------o||
|-----------|----------|-------------|------------------||
|-----------|----------|-------------|------------------||
|-4----0----|-0--------|-0h=3--3-----|-[8]S=4--[4]-----o||
|-4----0----|-0--------|-0h=3--3--0--|--------------0---||


 Riff 9 (3:52)
  Q=230
 3/4
  Gtr I
       PM     PM-------------|          PM----| ~            PM----|
  Q.   E Q    S  S S S S S S S E E   E  S S E E Q    E E E E S S S S
|-----------|----------------------|---------------|-----------------|
|-----------|----------------------|---------------|-----------------|
|-----------|----------------------|---------------|-----------------|
|-----------|----------------------|---------------|-----------------|
|-1----0-1--|-8--8-8-8-8-8-8-8-8h9-|-5--6-6-6-6-6--|-9p6p5-----------|
|-1----0-1--|----------------------|---------------|-------8-4-4-4-4-|
|
| Gtr II
|      PM
| Q.   E Q    H.                     H.              H.
|-----------|----------------------|---------------|-----------------|
|-----------|----------------------|---------------|-----------------|
|-----------|----------------------|---------------|-----------------|
|-----------|----------------------|---------------|-----------------|
|-1----0-1--|----------------------|---------------|-----------------|
|-1----0-1--|----------------------|---------------|-----------------|


  Gtr I
  PM-----| ~ PM--------|            PM-----
  S  S S S E S S S S S S   E E Q    S S E
|------------------------|----------------|
|------------------------|----------------|
|------------------------|----------------|
|------------------------|----------------|
|------------------------|----------------|
|-4--4-4-4-4-8-8-8-8-8-8-|-8-7-7b8r=3-3-3-|
|
| Gtr II
|                                   PM-----
| H.                       H        S S E
|------------------------|----------------|
|------------------------|----------------|
|------------------------|----------------|
|------------------------|----------------|
|------------------------|----------------|
|------------------------|----------3-3-3-|


 ---------------------------------|
  S S E S S E S S E   S S E S S S S E E
|-------------------|-------------------|
|-------------------|-------------------|
|-------------------|-------------------|
|-------------------|-------------------|
|-------------------|-9-9-9-8-8-8-8-5h6-|
|-0-0-0-3-3-3-4-4-4-|-------------------|
|
|---------------------------------|
| S S E S S E S S E   S S E S S S S E E
|-------------------|-------------------|
|-------------------|-------------------|
|-------------------|-------------------|
|-------------------|-------------------|
|-------------------|-9-9-9-8-8-8-8-5h6-|
|-0-0-0-3-3-3-4-4-4-|-------------------|


  Gtrs I, II
  ~            PM------------| ~ PM----------|
  Q  E E E E   S S S S S S S S E S S   S S S S E E Q
|------------|-----------------------|-------------------|
|------------|-----------------------|-------------------|
|------------|-----------------------|-------------------|
|------------|-----------------------|-------------------|
|-6--9-6-5---|-----------------------|-----------5-5b6---|
|----------8-|-4-4-4-4-4-4-4-4-4-8-8-|-8-8-8-8-7---------|


   3/4
    Gtrs I, II
         PM     PM------------|         PM----| ~            PM----|
    Q.   E Q    S S S S S S S S E E   E S S E E Q    E E E E S S S S
||------------|---------------------|--------------|------------------|
||o-----------|---------------------|--------------|------------------|
||------------|---------------------|--------------|------------------|
||------------|---------------------|--------------|------------------|
||o-1----0-1--|-8-8-8-8-8-8-8-8-8h9-|-5-6-6-6-6-6--|-9p6p5------------|
||--1----0-1--|---------------------|--------------|-------8-4-4-4-4--|


  Gtrs I, II
  PM----| ~ PM--------|            PM-----
  S S S S E S S S S S S   E E Q    S S E
|-----------------------|----------------|
|-----------------------|----------------|
|-----------------------|----------------|
|-----------------------|----------------|
|-----------------------|----------------|
|-4-4-4-4-4-8-8-8-8-8-8-|-8-7-7b8r=3-3-3-|


 ---------------------------------|
  S S E S S E S S E   S S E S S S S E E
|-------------------|-------------------|
|-------------------|-------------------|
|-------------------|-------------------|
|-------------------|-------------------|
|-------------------|-9-9-9-8-8-8-8-5h6-|
|-0-0-0-3-3-3-4-4-4-|-------------------|


  Gtrs I, II
  ~            PM------------| ~ PM----------|
  Q  E E E E   S S S S S S S S E S S   S S S S E E Q
|------------|-----------------------|--------------------||
|------------|-----------------------|-------------------o||
|------------|-----------------------|--------------------||
|------------|-----------------------|--------------------||
|-6--9-6-5---|-----------------------|-----------5-5b6---o||
|----------8-|-4-4-4-4-4-4-4-4-4-8-8-|-8-8-8-8-7----------||


 Riff 7a (4:18)
 4/4
  Gtrs I, II
  PM--|     PM--|         PM|     PM--|       PM----|         PM
  E E E E E E E E   E E E E E E E E   E E E E E E E E   E E E E E E E E
|-----------------|-----------------|-----------------|------------------|
|-----------------|-----------------|-----------------|------------------|
|-----------------|-----------------|-----------------|------------------|
|-----------------|-----------------|-----------------|------------------|
|-----------------|-----------------|-----------------|---------3S2-2S1--|
|-0-0-0-2-1-0-0-0-|-1-3-2-0-0-2-1-0-|-0-3-2-1-0-0-0-0-|-6-5-4-0-5S4-4S3--|


  Gtrs I, II
  PM--|     PM--|         PM|     PM--|       PM              PM--|   PM
  E E E E E E E E   E E E E E E E E   E E E E E E E E   E S S E E E E Q
|-----------------|-----------------|-----------------|-------------------|
|-----------------|-----------------|-----------------|-------------------|
|-----------------|-----------------|-----------------|-------------------|
|-----------------|-----------------|-----------------|-------------------|
|-------2-1-------|-1-3-2-----2-1---|---3-2-1---6-5-4-|-5-6p5-------6-----|
|-0-0-0-2-1-0-0-0-|-1-3-2-0-0-2-1-0-|-0-3-2-1-0-6-5-4-|-------8-7-5---5---|


  W          W
|----------|------*|
|----------|------*|
|----------|------*|
|----------|------*|
|----------|------*|
|----------|------*|


End.

  Visit MetalTabs.com for more metal tablature

bottom separator

Contact Us | Privacy Policy | Disclaimer | Legal Notice
Copyright © 2001-2014 MetalTabs.com. All Rights Reserved.