top separator

Home

Forum

What's New

Submit a Tab

FAQ

Links

Contact Us

Link to Us

MetalTabs.com logo

Bands

0-9

A

B

C

D

E

F

G

H

I

J

K

L

M

N

O

P

Q

R

S

T

U

V

W

X

Y

Z

Search

What

Where
 

Mortal Decay - "Brutalized and Defiled" Guitar Tab

Plain Text Version
More Mortal Decay Tabs

Hits: 2214
Rated: 3.00 out of 5 (2 votes)
Updated: 2006-02-11 07:27:41

 

By:

Yura

sendpm.gif

email.gif

Important note
This tab is available online because we obtained explicit permission from Mortal Decay or their label.


#----------------------------------PLEASE NOTE---------------------------------#
#This file is the author's own work and represents their interpretation of the #
#song. You may only use this file for private study, scholarship, or research. #
#Unless specified otherwise, this is NOT an official tab from the band members.#
#------------------------------------------------------------------------------#

  Visit MetalTabs.com for more metal tablature
  
Song : BRUTALIZED AND DEFILED
Band : MORTAL DECAY
ALBUM : Forensick
Copyright Unique Leader Records 2003

Version 1.0 (February'06)
Transcribed by : Yura Kowalchuk
       contact : yura_kowalchuk@mail.ru
URL: [www.blood-scrapes.nm.ru]

::TABULATURE LEGEND::
 " - tremolo             h - hammer on
 ~ - vibrato             \ - slide down
 p - pull off            / - slide down
 tr - trill              ^ - pinch harmonics
 = - sustained note      b - bend string
 p.m. - palm muting      t - tapping

Tuning is Bb

[Riff 1 (x2)]
||------------------------------------|---------------------------------|-
||o-----------------------------------|---------------------------------|-
||------------------------------------|---------------------------------|-
||---8----8-----------7---7-----------|-9\8---------9\8-9\8---------9\8-|-
||o----4----4-7-6-------4---4-7-6-----|-7\6-6/7-----7\6-7\6-6/7-----7\6-|-
||----------------4-5-------------4-5-|-----4/5-0-0---------4/5-0-0-----|-
|    . .  . . . . . . . . . . . . . . |         . .             . .     |
||------------------------------------|---------------------------------|-
||o-----------------------------------|---------------------------------|-
||------------------------------------|---------------------------------|-
||------------------------------------|-9\8---------9\8-9\8---------9\8-|-
||o-10---10---7-6-----9---9---7-6-----|-7\6-6/7-----7\6-7\6-6/7-----7\6-|-
||-----6----6-----4-5---6---6-----4-5-|-----4/5-0-0---------4/5-0-0-----|-
    .  . .  . . . . . . . . . . . . .           . .             . .

-|-----------------------------------|-7-6-----6-5-----7-6-----6-5------||
-|-----------------------------------|-----7-5-----6-5-----7-5-----6-5-o||
-|-----------------------------------|----------------------------------||
-|--8----8-----------7---7-----------|----------------------------------||
-|----4----4-7-6-------4---4-7-6-----|---------------------------------o||
-|---------------4-5-------------4-5-|----------------------------------||
 |  . .  . . . . . . . . . . . . . . | . . . . . . . . . . . . . . . .   |
-|-----------------------------------|----------------------------------||
-|-----------------------------------|-8-7-----7-6-----8-7-----7-6-----o||
-|-----------------------------------|-----7-5-----6-5-----7-5-----6-5--||
-|-----------------------------------|----------------------------------||
-|-10---10---7-6-----9---9---7-6-----|---------------------------------o||
-|----6----6-----4-5---6---6-----4-5-|----------------------------------||
   .  . .  . . . . . . . . . . . . .   . . . . . . . . . . . . . . . .

[Outro 1]
|-11-8-5---4---5---11-8-5---4---5---|
|--------6---6---6--------6---6---6-|
|-----------------------------------|
|-----------------------------------|
|-----------------------------------|
|-----------------------------------|
| .  . . . . . . . .  . . . . . . . |
|-----------------------------------|
|--9-6--------------9-6-------------|
|------7-4-6-4-7-4------7-4-6-4-7-4-|
|-----------------------------------|
|-----------------------------------|
|-----------------------------------|
   . . . . . . . .  . . . . . . . .

[RIFF 1]

[Outro 2]
|-11-8-5---4---5---11-8-5---4---5---|-7-6-----6-5-----7-6-----6-5-----|-
|--------6---6---6--------6---6---6-|-----7-5-----6-5-----7-5-----6-5-|-
|-----------------------------------|---------------------------------|-
|-----------------------------------|---------------------------------|-
|-----------------------------------|---------------------------------|-
|-----------------------------------|---------------------------------|-
| .  . . . . . . . .  . . . . . . . | . . . . . . . . . . . . . . . . |
|-----------------------------------|---------------------------------|-
|--9-6--------------9-6-------------|-8-7-----7-6-----8-7-----7-6-----|-
|------7-4-6-4-7-4------7-4-6-4-7-4-|-----7-5-----6-5-----7-5-----6-5-|-
|-----------------------------------|---------------------------------|-
|-----------------------------------|---------------------------------|-
|-----------------------------------|---------------------------------|-
   . . . . . . . .  . . . . . . . .   . . . . . . . . . . . . . . . .

-|-11-8-5---4---5---11-8-5---4---5---|---------------------|
-|--------6---6---6--------6---6---6-|---------------------|
-|-----------------------------------|---------------------|
-|-----------------------------------|---------------------|
-|-----------------------------------|-5--5------5--5------|
-|-----------------------------------|-3--3------3--3------|
 | .  . . . . . . . .  . . . . . . . | .  .      .  .      |
-|-----------------------------------|---------------------|
-|--9-6--------------9-6-------------|---------------------|
-|------7-4-6-4-7-4------7-4-6-4-7-4-|---------------------|
-|-----------------------------------|---------------------|
-|-----------------------------------|-5--5------5--5------|
-|-----------------------------------|-3--3------3--3------|
   . . . . . . . . . . . . . . . . .   .  .      .  .

[Riff 2 (x2)]
||----------------------------------|---------------------------------|-
||o---------------------------------|---------------------------------|-
||----------------------------------|---------------------------------|-
||--9\8---------9\8-9\8---------9\8-|-9\8---------9\8-9\8-------------|-
||o-7\6-6/7-----7\6-7\6-6/7-----7\6-|-7\6-6/7-----7\6-7\6-6/7---------|-
||------4/5-0-0---------4/5-0-0-----|-----4/5-0-0---------4/5-0-0-0-0-|-
            . .             . .               . .             . . . .
                                    __________________________________
                                   |1.
-|---------------------------------|----------------------------------||
-|---------------------------------|---------------------------------o||
-|---------------------------------|----------------------------------||
-|-9\8-9\8---------9\8-9\8---------|-9\8-9\8---------9\8-9\8-----9\8--||
-|-7\6-7\6-6/7-----7\6-7\6-6/7-----|-7\6-7\6-6/7-----7\6-7\6-6/7-7\6-o||
-|---------4/5-0-0---------4/5-0-0-|---------4/5-0-0---------4/5------||
               . .             . .               . .
                                    _________________________________
                                   |2.
                                    ---------------------------------|
                                    ---------------------------------|
                                    ---------------------------------|
                                    -9\8-9\8---------9\8-9\8---------|
                                    -7\6-7\6-6/7-----7\6-7\6-6/7-----|
                                    ---------4/5-0-0---------4/5-0-0-|
                                                 . .             . .

[Riff 3a (x2)]
||----------------------------------|----------------------------------||
||o---------------------------------|---------------------------------o||
||-----13--------------13-----------|----13--------------13------------||
||--10----10-9-10-9-10----10-9-10-9-|-10----10-9-10-9-10----10-9-10-9--||
||o---------------------------------|---------------------------------o||
||----------------------------------|----------------------------------||
|   .  .  .  . .  . .  .  .  . .  . | .  .  .  . .  . .  .  .  . .  .   |
||----------------------------------|----------------------------------||
||o---------------------------------|---------------------------------o||
||----------------------------------|----------------------------------||
||---5======-6======-5======--------|----------------------------------||
||o--3======-4======-3======-6=====-|----4===========-5=============--o||
||---------------------------4=====-|-22-2===========-3=============---||

[Riff 4]
|---------------------------------|---------------------------------|-
|----^----------------------------|----^----------------------------|-
|----11--------------^------------|----13--------------^------------|-
|-10----10-9-10-9-10-11-10-9-10-9-|-10----10-9-10-9-10-11-10-9-10-9-|-
|---------------------------------|---------------------------------|-
|---------------------------------|---------------------------------|-
| .      . .  . . .     .  .  . . | .     .  . .  . .     .  . .  . |
|---------------------------------|---------------------------------|-
|---------------------------------|---------------------------------|-
|---------------------------------|---------------------------------|-
|--------10"-11"-10"-9"-9"--------|---------------------------------|-
|--------\______x2_______/--------|--------10"-11"-10"-9"-9"--------|-
|---------------------------------|--------\______x2_______/--------|-

-|---------------------------------|---------------------------------|
-|----^----------------------------|----^----------------------------|
-|----11--------------^------------|----13--------------^------------|
-|-10----10-9-10-9-10-11-10-9-10-9-|-10----10-9-10-9-10-11-10-9-10-9-|
-|---------------------------------|---------------------------------|
-|---------------------------------|---------------------------------|
 | .      . .  . . .     .  .  . . | .     .  . .  . .     .  . .  . |
-|---------------------------------|---------------------------------|
-|---------------------------------|---------------------------------|
-|---------------------------------|---------------------------------|
-|--------10"-11"-10"-9"-9"--------|----7"8"7"6"7"6"5"6"5"4"5"4"-----|
-|--------\______x2_______/--------|---------------------------------|
-|---------------------------------|---------------------------------|

[Riff 5 (x4)]        [outro 2]
||----------------||------------|
||o--------------o||------------|
||----------------||------------|
||----------------||-6-5=======-|
||o-4-^--4-3-4-3-o||-4-3=======-|
||--2-3~-2-1-2-1--||------------|
    .    . . . .

[Riff 3b (x2)]
||----------------------------------|----------------------------------||
||o---------------------------------|---------------------------------o||
||-----13--------------13-----------|----13--------------13------------||
||--10----10-9-10-9-10----10-9-10-9-|-10----10-9-10-9-10----10-9-10-9--||
||o---------------------------------|---------------------------------o||
||----------------------------------|----------------------------------||
|   .  .  .  . .  . .  .  .  . .  . | .  .  .  . .  . .  .  .  . .  .   |
||----------------------------------|----------------------------------||
||o---------------------------------|---------------------------------o||
||----------------------------------|----------------------------------||
||---5-----6----5------------5------|----------------------------------||
||o--3-----4----3----6-------3----6-|----4===========-5=============---||
||-------------------4------------4-|-22-2===========-3=============---||

[RIFF 4] [RIFF 5 (x4)]

[Outro 3]
|-------------|
|-/triplets \-|
|-------------|
|-6-5-6-7-6-8-|
|-4-3-4-5-4-6-|
|-------------|
  . . . . . .

[Riff 6]
||-----------------------------[x2]--||---------------------------------------|
||o---------------------------------o||---------------------------------------|
||------------------------------6----||---------------------------------------|
||--99998-3---3-99998-3---3-8-----7--||-10----13"..----------13"....-13-12-11-|
||o-77776-1-2-1-77776-1-2-1---9-----o||----11-------14-13-12------------------|
||----------0-----------0------------||---------------------------------------|
|   ..... . . . ..... . . .           |             .  .  .          .  .  .  |
||-----------------------------[x2]--||---------------------------------------|
||o---------------------------------o||---------------------------------------|
||------------------------------6----||---------------------------------------|
||--99998-3---3-99998-3---3-8-----7--||-10----13"..----------13"....----------|
||o-77776-1-2-1-77776-1-2-1---9-----o||----11-------14-13-12---------14-13-12-|
||----------0-----------0------------||---------------------------------------|
    ..... . . . ..... . . .                         .  .  .          .  .  .

[Riff 7]
||----------[x7]-||---------------------|
||o-------------o||---------------------|
||--66665--------||-66665-------4-3-6-5-|
||--44443-6-5----||-44443-6-5-4-2-1-4-3-|
||o-------4-3-6-o||-------4-3-2-2-1-4-3-|
||------------4--||---------------------|
    ..... . . .     ..... . . . . . . .

[Outro 4]
|---------------|---------------------|
|---------------|---------------------|
|---------------|-----------------6---|
|-------8-3---3-|-99998-3---3-8-----7-|
|-7"...-6-1-2-1-|-77776-1-2-1---9-----|
|-----------0---|---------0-----------|
|       . . . . | ..... . . .         |
|---------------|---------------------|
|---------------|---------------------|
|---------------|-----------------6---|
|-6"...-8-3---3-|-99998-3---3-8-----7-|
|-------6-1-2-1-|-77776-1-2-1---9-----|
|-----------0---|---------0-----------|
        . . . .   ..... . . .

[RIFF 6 /both gutiars/]

[Outro 5]
|-------------------------|-------------------------------------|
|-------------------------|-------------------------------------|
|-66665-------------------|-------------------------------------|
|-44443-6-5---9-9-8-------|-5-4-6-------5-4-6-------5-4---------|
|-------4-3-6-7-7-6-6-2-6-|-------------------------------------|
|-----------4-------4-0-4-|-------7-0-4-------7-0-4-----4-7-6-4-|
  ..... . . .     . . . .           . .         . .       . . .

[Riff 8]
|---------------------------------|---------------------------------|-
|---------------------------------|---------------------------------|-
|---------------------------------|---------------------------------|-
|-4-------3-2-4-------3-2---------|-6-------5-4-6-------5-4---------|-
|-------------------------5-8-7---|-----------------------------6-6-|-
|---5-0-2-------5-0-2-----------5-|---7-0-4-------7-0-4-----4-7-----|-
|     . .         . .     . . . . |     . .         . .     . . . . |
|---------------------------------|---------------------------------|-
|---------------------------------|---------------------------------|-
|---------------------------------|---------------------------------|-
|-4-------3-2-4-------3-2---------|-6-------5-4-6-------5-4---------|-
|-------------------------1-4-3---|-------------------------------6-|-
|---5-0-2-------5-0-2-----------1-|---7-0-4-------7-0-4-----4-7-6---|-
      . .         . .     . . . .       . .         . .     . . . .

-|-------------------------|------------------|
-|-------------------------|--------------^---|
-|-------------------------|--------------7~--|
-|-6-------5-4-6-------5-4-|-9-88-6-9-8-6-----|
-|-------------------------|------------------|
-|---7-0-4-------7-0-4-----|------------------|
 |     . .         . .     | . .. . . . .     |
-|-------------------------|------------------|
-|-------------------------|--------------^---|
-|-------------------------|--------------7~--|
-|-6-------5-4-6-------5-4-|-9-88-6-9-8-6-----|
-|-------------------------|------------------|
-|---7-0-4-------7-0-4-----|------------------|
       . .         . .       . .. . . . .

-|---------------------------------|---------------------------------|-
-|---------------------------------|---------------------------------|-
-|---------------------------------|---------------------------------|-
-|-6-------5-4-6-------5-4---------|-4-------3-2-4-------3-2-------7-|-
-|-------------------------------6-|-------------------------5-8-7---|-
-|---7-0-4-------7-0-4-----4-7-6---|---5-0-2-------5-0-2-------------|-
 |     . .         . .     . . . . |     . .         . .     . . . . |
-|---------------------------------|---------------------------------|-
-|---------------------------------|---------------------------------|-
-|---------------------------------|---------------------------------|-
-|-6-------5-4-6-------5-4---------|-4-------3-2-4-------3-2-------3-|-
-|-------------------------------6-|-------------------------1-4-3---|-
-|---7-0-4-------7-0-4-----4-7-6---|---5-0-2-------5-0-2-------------|-
       . .         . .     . . . .       . .         . .     . . . .

-|---------------------------------|-------------------------|-
-|---------------------------------|-------------------------|-
-|---------------------------------|-------------------------|-
-|-6-------5-4-6-------5-4---------|-6-------5-4-6-------5-4-|-
-|-------------------------------6-|-------------------------|-
-|---7-0-4-------7-0-4-----4-7-6---|---7-0-4-------7-0-4-----|-
 |     . .         . .     . . . . |     . .         . . . . |
-|---------------------------------|-------------------------|-
-|---------------------------------|-------------------------|-
-|---------------------------------|-------------------------|-
-|-6-------5-4-6-------5-4---------|-6-------5-4-6-------5-4-|-
-|-------------------------------6-|-------------------------|-
-|---7-0-4-------7-0-4-----4-7-6---|---7-0-4-------7-0-4-----|-
       . .         . .     . . . .       . .         . . . .

-|---------------------------|
-|---------------------------|
-|---------------------------|
-|-9-88-6-9-8-6--------------|
-|--------------7-66-4-7-6-4-|
-|---------------------------|
 | . .. . . . . . .. . . . . |
-|---------------------------|
-|---------------------------|
-|---------------------------|
-|-9-88-6-9-8-6--------------|
-|--------------7-66-4-7-6-4-|
-|---------------------------|
   . .. . . . . . .. . . . .

[Riff 9a]
|-------------------------------------|----------------------------------|
|-------------------------------------|----------------------------------|
|------5/7------7\5------5/7------7\5-|------5/7------7\5------5/7-------|
|---44-------66-------44-------66-----|---44-------66-------44-----------|
|-3--------5--------3--------5--------|-3--------5--------3--------7-7-6-|
|-------------------------------------|----------------------------5-5-4-|
  . ..     . ..     . ..     . ..       . ..     . ..     . ..     . . .

[Riff 9b (x2)]
||--------------------------------------|-----------------------------------||
||o-------------------------------------|----------------------------------o||
||-------5/7------7\5------5/7------7\5-|------5/7------7\5------5\7--------||
||----44-------66-------44-------66-----|---44-------66-------44------------||
||o-3--------5--------3--------5--------|-3--------5--------3--------7-7-6-o||
||--------------------------------------|----------------------------5-5-4--||
|   . ..     . ..     . ..     . ..     | . ..     . ..     . ..     . . .   |
||--------------------------------------|-----------------------------------||
||o------7\5------5/7------7\5------5/7-|------7\5------5/7------7\5-------o||
||----66-------33-------66-------33-----|---66-------33-------66------------||
||--5--------2--------5--------2--------|-5--------2--------5---------------||
||o-------------------------------------|----------------------------7-7-6-o||
||--------------------------------------|----------------------------5-5-4--||
    . ..     . ..     . ..     . ..       . ..     . ..     . ..     . . .

[Riff 10]
|-------------------------|-------------------------|-
|-------------------------|-------------------------|-
|-------------------------|---3-----------5---------|-
|---4-----------6---------|-2---2-------4---4-------|-
|-3---3-------5---5-------|-------------------------|-
|-------4-5-4-------6-7-6-|-------4-5-4-------6-7-6-|-
|     . . . .     . . . . |     . . . .     . . . . |
|-------------------------|-------------------------|-
|-------------------------|-------------------------|-
|-------------------------|-------------------------|-
|---4-----------6---------|---4-----------6---------|-
|-3---3-------5---5-------|-3---3-------5---5-------|-
|-------4-5-4-------6-7-6-|-------4-5-4-------6-7-6-|-
      . . . .     . . . .       . . . .     . . . .

-|-------------------------|-------------------------|
-|-------------------------|-------------------------|
-|-------------------------|---3-----------5---------|
-|---4-----------6---------|-2---2-------4---4-------|
-|-3---3-------5---5-------|-------------------7-7-6-|
-|-------4-5-4-------6-7-6-|-------4-5-4-------5-5-4-|
 |     . . . .     . . . . |     . . . .     . . . . |
-|-------------------------|-------------------------|
-|-------------------------|-------------------------|
-|-------------------------|-------------------------|
-|---4-----------6---------|---4-----------6---------|
-|-3---3-------5---5-------|-3---3-------5---5-7-7-6-|
-|-------4-5-4-------6-7-6-|-------4-5-4-------5-5-4-|
       . . . .     . . . .       . . . .     . . . .

[RIFF 9b (x2)]

[Riff 11 (x2)]
||-----------------------------------|-----------------------------------||
||o----------------------------------|----------------------------------o||
||------------------------------8888-|-----------------------------------||
||-----------------------------------|-----------------------------------||
||o-----------------777766667777-----|-6666555566667777------------8888-o||
||--3333444433334444-----------------|-----------------444466665555------||

[Outro 6]
|-------------------|--------------------------|
|-------------------|--------------------------|
|----------11~-12~--|-------------777788888888-|
|-8--9--8-----------|--------------------------|
|-6--7--6-----------|-666677776666-------------|
|-------------------|--------------------------|
| .  .  .           |                          |
|-------------------|--------------------------|
|-------------------|--------------------------|
|-----------7~--8~--|--------------------------|
|-8--9--8-----------|-8------------------------|
|-6--7--6-----------|-6------------------------|
|-------------------|--------------------------|
  .  .  .             .

 [Riff 12]
 -----------||---------------------------------[x4]-||
 -----------||o------------------------------------o||
 -11-8------||--------------777788888888-11-8-------||
 ------10-7-||--------------------------------10-7--||
 -----------||o-666677776666-----------------------o||
 -----------||--------------------------------------||
  .  . .  .                              .  . .  .

[Riff 13 (x2)]
||---------------------------------------------------------------
||o--------------------------------------------------------------
||----------88888888------------8888--------77777777--------7777-
||---------------------------------------------------------------
||o-77776666--------777766667777----66665555--------66665555-----
||---------------------------------------------------------------

-------------------------------------------------------------------||
------------------------------------------------------------------o||
---------88888888------------8888--------7777----------------------||
---------------------------------------------------------6666------||
-77776666--------777766667777----66665555-------------------------o||
---------------------------------------------333344443333----4444--||


[RIFF 11 (x4)] [OUTRO 6] [RIFF 12 (play second bar only 3 times)]

[Outro 7]
|----------|
|----------|
|----------|
|-10-7-----|
|------9-6-|
|----------|
  .  . . .

[RIFF 7]

[Ending]
||-----------------------------[x2]--||---------------------------------------|
||o---------------------------------o||---------------------------------------|
||------------------------------6----||---------------------------------------|
||--99998-------99998-------8-----7--||-10----13"..----------13"....-13-12-11-|
||o-77776-------77776---------9-----o||----11-------14-13-12------------------|
||-----------------------------------||---------------------------------------|
|   .....       .....                 |             .  .  .          .  .  .  |
||-----------------------------[x2]--||---------------------------------------|
||o---------------------------------o||---------------------------------------|
||------------------------------6----||---------------------------------------|
||--99998-------99998-------8-----7--||-10----13"..----------13"....----------|
||o-77776-------77776---------9-----o||----11-------14-13-12---------14-13-12-|
||-----------------------------------||---------------------------------------|
    .....       .....                               .  .  .          .  .  .

END OF SONG

  Visit MetalTabs.com for more metal tablature

bottom separator

Contact Us | Privacy Policy | Disclaimer | Legal Notice
Copyright © 2001-2014 MetalTabs.com. All Rights Reserved.