#----------------------------------PLEASE NOTE---------------------------------#
#This file is the author's own work and represents their interpretation of the #
#song. You may only use this file for private study, scholarship, or research. #
#Unless specified otherwise, this is NOT an official tab from the band members.#
#------------------------------------------------------------------------------#

  Visit MetalTabs.com for more metal tablature
  
Band : ANTIPHRASIS
Album : Gutsfuck
Title : Last Minute
Tune : D

Copyright (c)  Christhunt Production 2004

Transcribed by: Ludool
E-mail: ludool666@voila.fr

Symbols:
 ^ : bend
 / : slide up
 \ : slide down
 ..: let ring
 h : hammer on
 ~~: tremolo

Intro / Outro: (let ring)
						       _
|--------------------------------------------------|    |
|-------------10----------------------10-----------|    |
|-------11-------11----11-------11-------11----11--|    |
|-11-11----11-------11----11-11----11-------11-----|    |
|-9-----------------------9------------------------|    |
|--------------------------------------------------|    |
						        |-->Part I
|--------------------------------------------------|    |
|-------------9----------------------9-------------|    |
|-------10------10----10-------10------10----10----|    |
|-10-10----10------10----10-10----10------10-------|    |
|-8----------------------8-------------------------|    |
|--------------------------------------------------|   _|


|-------------------------------------------------------------------|
|---------6-------------------------------5---------------5---------|
|-----7-----7---7-----7---------------6-----6---6-----6-----6---6---|-->Part II
|-7-7---7-----7---7-7---7-6/7-7-7-6-6---6-----6---6-6---6-----6-----|
|-5---------------5-------4/5-5-5-4---------------4-----------------|
|-------------------------------------------------------------------|

						       _
|--------------------------------------------------|    |
|-------------10----------------------10-----------|    |
|-------11-------11----11-------11-------11----11--|    |
|-11-11----11-------11----11-11----11-------11-----|    |
|-9-----------------------9------------------------|    |
|--------------------------------------------------|    |
						        |-->Part III
|--------------------------------------------------|    |
|-------------9----------------------12------------|    |
|-------10------10----10-------13-------13----13---|    |
|-10-10----10------10----13-13----13-------13------|    |
|-8----------------------11------------------------|    |
|--------------------------------------------------|   _|

|----------------------|
|----------------------|
|----------------------|-->End intro / outro
|----------------------|
|-7-7-x-6-6-x-4~~------|
|-5-5-x-4-4-x-2~~------|


RIFF A:
|------------------------------------------------------------------------|
|----10-14-10-14-10----10-13-9----9--------------------------------------|
|-11----------------11---------10------10-14-10-(11~~last time)----------|
|-----------------------------------11-----------------------------------|
|------------------------------------------------------------------------|
|------------------------------------------------------------------------|

RIFF B:
|------------------------------|
|------------------------------|
|------------------------------|
|-4-xx-4--2--5-----------------|
|-4-xx-4-----------------------|
|-2-xx-2-----------------------|

RIFF C:
|------------------------------------------------------------------------|
|------------------------------------------------------------------------|
|------------------------------------------------------------------------|
|-----5-4-----4-------5-4-------5----------------------------------------|
|---4-------4---5---4-------5--------------------------------------------|
|-2-------2-------2-------3---3------------------------------------------|

                                 _______________
RIFF D:                         |last time (let ring)
|------------------------------------------------------------------------|
|------------------------------------------------------------------------|
|------------------------------------------------------------------------|
|-4-xxx-xx4xxxxx-xx4xxxxx-xx7-5--4...------------------------------------|
|-4-xxx-xx4xxxxx-xx4xxxxx-xx7-5--4...------------------------------------|
|-2-xxx-xx2xxxxx-xx2xxxxx-xx5-3--2...------------------------------------|

RIFF E:
|----------------------------------------------------------------------|
|----------------------------------------------------------------------|
|-/11-----11h13-13----13h14-14--13h14h16-14-13-14-14--11--11-----------|x2
|-----11-----------11--------------------------------------------------|
|----------------------------------------------------------------------|
|----------------------------------------------------------------------|
					   _______     ___________
					   |1st time   |2nd time
|----------------------------------------------------------------------|
|-----14------------14------------17--------17----------17^------------|
|-11------11h13-13------13h14-16-----16-16------16---------------------|x2
|----------------------------------------------------------------------|
|----------------------------------------------------------------------|
|----------------------------------------------------------------------|

RIFF F:
|------------------------------------------------------------------------|
|------------------------------------------------------------------------|
|-x-xx11-x-xx11-x-xx11-x-xx11-x-xx9--x-xx9--x-xx9--x-xx9-----------------|
|-x-xx11-x-xx11-x-xx11-x-xx11-x-xx9--x-xx9--x-xx9--x-xx9-----------------|
|-x-xx9--x-xx9--x-xx9--x-xx9--x-xx7--x-xx7--x-xx7--x-xx7-----------------|
|------------------------------------------------------------------------|

RIFF G:
|----------------------------------------------------------------------|
|----------------------------------------------------------------------|
|-11-xxxx11-xxxx9-12-11-11\9-7-xxxx9-xxxx------------------------------|x2
|-11-xxxx11-xxxx9-12-11-11\9-7-xxxx9-xxxx9-7-9-9-----------------------|
|-9--xxxx9--xxxx7-10-9--9-\7-5-xxxx7-xxxx9-7-9-9-----------------------|
|----------------------------------------7-5-7-7-----------------------|

|------------------------------------------------------------------------|
|------------------------------------------------------------------------|
|-----------------------------11-11-9-12-11-xxxx11-----------------------|
|-(9)\5-xxxx7-xxxx9-xxxx9-xxxx11-11-9-12-11-xxxx11-----------------------|
|-(9)\5-xxxx7-xxxx9-xxxx9-xxxx9--9--7-10-9--xxxx9------------------------|
|-(7)\3-xxxx5-xxxx7-xxxx7-xxxx-------------------------------------------|
				   __________  ____________
				   |1st time   |last time (let ring)
|------------------------------------------------------------------------|
|------------------------------------------------------------------------|
|-------------------------11-11-7-6-4-xxxx4-----4...---------------------|
|-5-xxxx7-xxxx9-xxxx9-xxxx11-11-7-6-4-xxxx4-----4...---------------------|
|-5-xxxx7-xxxx9-xxxx9-xxxx9--9--5-4-2-xxxx2-----2...---------------------|
|-3-xxxx5-xxxx7-xxxx7-xxxx-----------------------------------------------|



Song structure:

Intro:  Part I   x2
	Part I + lyrics	x2
	Part II	 x2
	Part I	 x4
	Part II	 x2
	Part III  x4
	Part II  x2 + End intro

	RIFF A   x4   untill "aaaahhh!!!"
	RIFF A	 x8
	RIFF B   x8
	RIFF C   x4
	RIFF D   x5
	RIFF E   x1   alone
	RIFF F   x4
	RIFF F   x4   during  RIFF E  x1
	RIFF G   x3

Outro:  Part I   x4
	Part II  x2 + End Outro


Il y a peut-Ítre quelques variantes...j'attends touts commentaires ou
corrections...
Enjoy! STAY BLACK, STAY METAL!!!

  Visit MetalTabs.com for more metal tablature