top separator

Home

Forum

What's New

Submit a Tab

FAQ

Links

Contact Us

Link to Us

MuSpy.com

MetalTabs.com logo

Bands

0-9

A

B

C

D

E

F

G

H

I

J

K

L

M

N

O

P

Q

R

S

T

U

V

W

X

Y

Z

Search

What

Where
 

Waylander - "Born To the Fight" Guitar Tab

Plain Text Version
More Waylander Tabs

Hits: 3985
Rated: 3.67 out of 5 (3 votes)
Updated: 2006-02-11 04:49:10

 

By:

Darkenelf

sendpm.gif

email.gif

Important note
This tab is available online because we obtained explicit permission from Waylander or their label.


#----------------------------------PLEASE NOTE---------------------------------#
#This file is the author's own work and represents their interpretation of the #
#song. You may only use this file for private study, scholarship, or research. #
#Unless specified otherwise, this is NOT an official tab from the band members.#
#------------------------------------------------------------------------------#

  Visit MetalTabs.com for more metal tablature
  
Band: Waylander
Album: Reawakening Pride once Lost
Song: Born to the Fight

Version 1.0 - (08-02-2006)

Transcribed By: Asmundr/Darkenelf
Email: asmundr@vikingblood.net


.  - palm mute           /  - slide up to
\  - slide down to       ~  - vibrato
h  - hammer on           b  - Bend
p  - pull off            Suffixes for bend
t  - tap                 f  - full bend    h - half bend
ph - pinched harmonic    q  - quarter bend t - tap bend
*  - see comment         ^  - Hold bend    r release bend
x  - Stuccatto           ~  - vibrato bend
,  - slight palm mute    () - ghost note, sustained note
"  - tremolo note        <> - Trill

Tuning E A D G B E

A
|-------------------------------------------------------------------|
|-------------------------------------------------------------------|
|-------------------------------------------------------------------|(4x)
|-----------------------------------------------5~-777-5------------|
|--------5-7-5----------------------------5-7-5----------7-5--------|
|-555-8--------8-5~--555-8-5--3-3~--555-8--------------------8--5-5-|

B (0:29)
|-------------------------------------------------------------------|
|-------------------------------------------------------------------|
|-------------------------------------------------------------------|(2x)
|-----------------------------------------------5555-5--------------|
|-----7------7-------7----5-5-------7------7----3333-3/7-7----------|
|-555-5-5-55-5-5-555-5-5--3-3---555-5-5-55-5-5---------5-5----------|
  ...   . ..   . ...   .        ...   . ..   .

Repeat riff A 2x (0:42)
Repeat riff B 2x (0:54)
Repeat riff A 2x (1:04)

C
|-------------------------------------------------------------------|
|-------------------------------------------------------------------|
|-9~-99--7/9--999-9\7-7-----999-9--7/9-12-12-12--12\7/9~------------|(4x)
|-7--77--5/7--777-7\5-5-----777-7--5/7-10-10-10--10\5/7-------------|
|-------------------------------------------------------------------|
|-------------------------------------------------------------------|

Repeat riff A 8x (1:40)
Repeat riff C 4x (2:28)

(End of Song)

  Visit MetalTabs.com for more metal tablature

bottom separator

Contact Us | Privacy Policy | Disclaimer | Legal Notice
Copyright © 2001-2014 MetalTabs.com. All Rights Reserved.