top separator

Home

Forum

What's New

Submit a Tab

FAQ

Links

Contact Us

Link to Us

MuSpy.com

MetalTabs.com logo

Bands

0-9

A

B

C

D

E

F

G

H

I

J

K

L

M

N

O

P

Q

R

S

T

U

V

W

X

Y

Z

Search

What

Where
 

Gorerotted - "Selection And Dissection Of Parts For Resurrection" Guitar Tab

Plain Text Version
More Gorerotted Tabs

Hits: 1886
Rated: 5.00 out of 5 (1 vote)
Updated: 2006-02-11 04:42:21

 

By:

Robbie Filth

sendpm.gif

email.gif

Important note
This tab is available online because we obtained explicit permission from Gorerotted or their label.


#----------------------------------PLEASE NOTE---------------------------------#
#This file is the author's own work and represents their interpretation of the #
#song. You may only use this file for private study, scholarship, or research. #
#Unless specified otherwise, this is NOT an official tab from the band members.#
#------------------------------------------------------------------------------#

  Visit MetalTabs.com for more metal tablature
  
Band: Gorerotted
Album: A New Dawn For The Dead
Song: Selection And Dissection Of Parts For Resurrection
Record Label: Metalblade
Tuning: D G C F A D

--------
--------
--------
--------
-3---6--
-1---4--

-------------------------------------------------------------------------------
-------------------------------------------------------------------------------
-------------------------------------6-------5-----------------------5-------5-
---------------------------------4-7---7-3-6---6-----------------3-6---6-4-7--7
-----4-------4-------3-------3-----------------------4-------4-----------------
-2-5---5-2-5---5-1-4---4-1-4---4-----------------2-5---5-2-5---5---------------
 pm.   . . .   . . .   . . .   . trem........... pm.   . . .   . trem..........

-------------------------------------------------------------------------------
-------------------------------------------------------------------------------
-----------------------------------------------------6-------5-----------------
-------------------------------------------------4-7---7-3-6---6---------------
-----3-------3-------4-------4-------3-------3-----------------------4-------4-
-1-4---4-1-4---4-2-5---5-2-5---5-1-4---4-1-4---4-----------------2-5---5-2-5--5
 pm.   . . .   . . .   . . .   . . .   . . .   . trem........... pm.   . . .  .

--------------------------
--------------------------
-----5-------6------------
-3-6---6-4-7---7----------
-----------------3-6-3-6--
-----------------1-4-1-4--
 trem........... pm. . .

--------------------------------
--------------------------------
--------------------------------
--------------------------------
---3---3-2---2-----3---3-2---2--
-5---5-----4---4-5---5-----4----X4
 trem....................... pm


-------------------------------------------------------------------------------
-------------------------------------------------------------------------------
-------------------------------------6-------5-----------------------5-------5-
---------------------------------4-7---7-3-6---6-----------------3-6---6-4-7--7
-----4-------4-------3-------3-----------------------4-------4-----------------
-2-5---5-2-5---5-1-4---4-1-4---4-----------------2-5---5-2-5---5---------------
 pm.   . . .   . . .   . . .   . trem........... pm.   . . .   . trem..........

-------------------------------------------------------------------------------
-------------------------------------------------------------------------------
-----------------------------------------------------6-------5-----------------
-------------------------------------------------4-7---7-3-6---6---------------
-----3-------3-------4-------4-------3-------3-----------------------4-------4-
-1-4---4-1-4---4-2-5---5-2-5---5-1-4---4-1-4---4-----------------2-5---5-2-5--5
 pm.   . . .   . . .   . . .   . . .   . . .   . trem........... pm.   . . .  .

--------------------------
--------------------------
-----5-------6------------
-3-6---6-4-7---7----------
-----------------3-6-3-6--
-----------------1-4-1-4--
 trem........... pm. . .

--------------------------------
--------------------------------
--------------------------------
--------------------------------
---3---3-2---2-----3---3-2---2--
-5---5-----4---4-5---5-----4----X4
 trem....................... pm

(drum fill)

-----------------------------------------------
-----------------------------------------------
-----------------------------------------------
-----------------------------------------------
-4-4---------3-3----------4-4---------3-3-3-6--
-2-2-4h5p4h5-1-1-4h5p4hp5-2-2-4h5p4h5-1-1-1-4--X4
 pm.         . .          . .         .   .

-----------------------------------------------
-----------------------------------------------
-----------------------------------------------
-4-4---------3-3----------4-4---------3-3-3-6--
-2-2-4h5p4h5-1-1-4h5p4hp5-2-2-4h5p4h5-1-1-1-4--
-----------------------------------------------X2
 pm.         . .          . .         .   .

-----------------------------------------------
-----------------------------------------------
-----------------------------------------------
-----------------------------------------------
-4-4---------3-3----------4-4---------3-3-3-6--
-2-2-4h5p4h5-1-1-4h5p4hp5-2-2-4h5p4h5-1-1-1-4--
 pm.         . .          . .         .   .

------------------------------------------------
------------------------------------------------
------------------------------------------------
------------------------------------------------
-4-4---------3-3----------4-4---------3-3-3-6-3-
-2-2-4h5p4h5-1-1-4h5p4hp5-2-2-4h5p4h5-1-1-1-4-1-
 pm.         . .          . .         .   . . .

--------------------------
--------------------------
--------------------------
-44444-------55555--------
-------7-6-5-------8-7-6--
-------5-4-3-------6-5-4--X4
       pm. .       . . .

----------------------------------------
----------------------------------------
----------------------------------------
-----4444-------------5555--------------
-4-4------4-4-7-6-5-5------5-5-8-7-4-4--
-2-2------2-2-5-4-3-3------3-3-6-5-2-2--X2
 pm.      . . . . . .      . . . . . .

--------------------------
--------------------------
--------------------------
-44444-------55555--------
-------7-6-5-------8-7-6--
-------5-4-3-------6-5-4--X2
       pm. .       . . .


-----------------------------------------------
-----------------------------------------------
-----------------------------------------------
-----------------------------------------------
-4-4---------3-3----------4-4---------3-3-3-6--
-2-2-4h5p4h5-1-1-4h5p4hp5-2-2-4h5p4h5-1-1-1-4--X4
 pm.         . .          . .         .   .

--------------------------------------------------------------------------------
--------------------------------------------------------------------------------
-----6-------6-------5-------5--------6-------5-----------------------5-------5-
-4-7---7-4-7---7-3-6---6-3-6---6--4-7---7-3-6---6-----------------3-6---6-4-7--7
-----------------------------------------------------4-------4------------------
-------------------------------------------------2-5---5-2-5---5----------------
 pm. . . . . . . . . . . . . . .  trem........... pm.  . . .   . trem..........

-------------------------------------------------------------------------------
-------------------------------------------------------------------------------
-----------------------------------------------------6-------5-----------------
-------------------------------------------------4-7---7-3-6---6---------------
-----3-------3-------4-------4-------3-------3-----------------------4-------4-
-1-4---4-1-4---4-2-5---5-2-5---5-1-4---4-1-4---4-----------------2-5---5-2-5--5
 pm.   . . .   . . .   . . .   . . .   . . .   . trem........... pm.   . . .  .

--------------------------
--------------------------
-----5-------6------------
-3-6---6-4-7---7----------
-----------------3-6-3-6--
-----------------1-4-1-4--
 trem........... pm. . .

--------------------------------
--------------------------------
--------------------------------
--------------------------------
---3---3-2---2-----3---3-2---2--
-5---5-----4---4-5---5-----4----X3
 trem....................... pm

----------------------------------
----------------------------------
----------------------------------
----------------------------------
---3---3-2---2-----3---3-3-4-5-6--
-5---5-----4---4-5---5---1-2-3-4--
 trem................... pm. . .

----------------
----------------
---9-9-9-8------
-7---------9-9--
----------------
----------------X8

--------------------------------------------------
--------------------------------------------------
---------1-2-3-4-4-5-6-7-8-7-6-5-4-3-2-1----------
-2-3-4-5---------------------------------5-4-3-2--
--------------------------------------------------
--------------------------------------------------X2
 pm. . . . . . . . . . . . . . . . . . . . . . .

----------------
----------------
---9-9-9-8------
-7---------9-9--
----------------
----------------X4

--------------------------------------------------
--------------------------------------------------
---------1-2-3-4-4-5-6-7-8-7-6-5-4-3-2-1----------
-2-3-4-5---------------------------------5-4-3-2--
--------------------------------------------------
--------------------------------------------------X2
 pm. . . . . . . . . . . . . . . . . . . . . . .

----------------
----------------
---9-9-9-8------
-7---------9-9--
----------------
----------------X4

--------------------------------------------------
--------------------------------------------------
---------1-2-3-4-4-5-6-7-8-7-6-5-4-3-2-1----------
-2-3-4-5---------------------------------5-4-3-2--
--------------------------------------------------
--------------------------------------------------X2
 pm. . . . . . . . . . . . . . . . . . . . . . .

----------------
----------------
---9-9-9-8------
-7---------9-9--
----------------
----------------X4

--------------------------------------------------
--------------------------------------------------
---------1-2-3-4-4-5-6-7-8-7-6-5-4-3-2-1----------
-2-3-4-5---------------------------------5-4-3-2--
--------------------------------------------------
--------------------------------------------------X2
 pm. . . . . . . . . . . . . . . . . . . . . . .

----------------
----------------
---9-9-9-8------
-7---------9-9--
----------------
----------------X4

--------------------------------------------------
--------------------------------------------------
---------1-2-3-4-4-5-6-7-8-7-6-5-4-3-2-1----------
-2-3-4-5---------------------------------5-4-3-2--
--------------------------------------------------
--------------------------------------------------X2
 pm. . . . . . . . . . . . . . . . . . . . . . .

----------------
----------------
---9-9-9-8------
-7---------9-9--
----------------
----------------X3

------------
------------
---9-9-9-8--
-7----------
------------
------------

THE END

Any corrections or anything mail em to:
Septic_Flesh241@hotmail.com

  Visit MetalTabs.com for more metal tablature

bottom separator

Contact Us | Privacy Policy | Disclaimer | Legal Notice
Copyright © 2001-2014 MetalTabs.com. All Rights Reserved.