top separator

Home

Forum

What's New

Submit a Tab

FAQ

Links

Contact Us

Link to Us

MetalTabs.com logo

Bands

0-9

A

B

C

D

E

F

G

H

I

J

K

L

M

N

O

P

Q

R

S

T

U

V

W

X

Y

Z

Search

What

Where
 

Dying Fetus - "In Times of War" Guitar Tab

Plain Text Version
More Dying Fetus Tabs

Hits: 2583
Rated: 4.00 out of 5 (1 vote)
Updated: 2006-02-11 04:28:31

 

By:

Yura

sendpm.gif

email.gif

Important note
This tab is available online because we obtained explicit permission from Dying Fetus or their label.


#----------------------------------PLEASE NOTE---------------------------------#
#This file is the author's own work and represents their interpretation of the #
#song. You may only use this file for private study, scholarship, or research. #
#Unless specified otherwise, this is NOT an official tab from the band members.#
#------------------------------------------------------------------------------#

  Visit MetalTabs.com for more metal tablature
  
Song : IN TIMES OF WAR
Band : DYING FETUS
ALBUM : DESTROY THE OPPOSITION
Copyright Relapse Records 2000

Version 1.0 (January'06)
Transcribed by : Yura Kowalchuk
       contact : yura_kowalchuk@mail.ru
URL: [www.blood-scrapes.nm.ru]

::TABULATURE LEGEND::
 " - tremolo             h - hammer on
 ~ - vibrato             \ - slide down
 p - pull off            / - slide down
 tr - trill              ^ - pinch harmonics
 = - sustained note      b - bend string
 p.m. - palm muting      t - tapping

Tuning is C# [C#,F#,B,e,g#,c#]

[Intro]
|----------------------------------|----------------------------------|
|----------------------------------|----------------------------------|
|----------------------------------|----------------------------------|
|----------------------2/5-----2/4-|-----------------7777555577778888-|
|----------------------------------|----------------------------------|
|-5-6-0-0-33332222-0-0-----0-0-----|-333-333-222-222------------------|
| . . . .          . .     . .     | ... ... ... ...                  |
|----------------------------------|----------------------------------|
|----------------------------------|----------------------------------|
|----------------------------------|----------------------------------|
|----------------------------------|-----------------7777555577778888-|
|-7-8------------------------------|-5-------4------------------------|
|-5-6------------------------------|-3-------2------------------------|
  . .                                .       .

[Riff 1a (x2)]
|----------------------------------|----------------------------------|
|----------------------------------|----------------------------------|
|----------------------------------|----------------------------------|
|----------------------2/5-----2/4-|-----------------7777555577778888-|
|----------------------------------|----------------------------------|
|-5-6-0-0-33332222-0-0-----0-0-----|-333-333-222-222------------------|
  . . . .          . .     . .       ... ... ... ...

[Riff 1b (x2)]
|----------------------------------|----------------------------------|
|----------------------------------|----------------------------------|
|----------------------------------|----------------------------------|
|----------------------2/5-----2/4-|----------------------------------|
|----------------------------------|----------------------------------|
|-5-6-0-0-33332222-0-0-----0-0-----|-333-333-222-222-555-333-555-666--|
  . . . .          . .     . .       ... ... ... ... ... ... ... ...

[Outro]
|------------[x3]-|----------------|
|-----------------|----------------|
|-----------------|----------------|
|-----------------|----------------|
|-----------------|-2--------------|
|-5-6-0-0-333-222-|-0--------------|
  . . . . ... ...   .

[Riff 2 (x4)]
|---------------------------------|---------------------------------|
|---------------------------------|---------------------------------|
|---------------------------------|---------------------------------|
|---------------------------------|---------------------------------|
|---------------------------------|-------------------7-7-7---8-8-8-|
|-5-6-0-0-333-222-5-6-0-0-333-222-|-5-6-0-0-333-222-0-5-5-5-0-6-6-6-|
  . . . . ... ... . . . . ... ...   . . . . ... ... .       .

[Riff 3 (x2)]
|----------------------------------|----------------------------------|-
|----------------------------------|----------------------------------|-
|----------------------------------|-------------------------------^--|-
|----------------------------------|---------------------------3---3~-|-
|---------5\4-----3/4---4---4---^--|---------5\4-----3/4---4---1------|-
|-0-000-0-3\2-0-0-5/6-0-2-0-2-0-2~-|-0-000-0-3\2-0-0-5/6-0-2-0---0----|-
  . ... .     . .     .   .   .      . ... .     . .     .   .   .

-|----------------------------------|-[ending 1]----------------------|
-|----------------------------------|---------------------------------|
-|----------------------------------|---------------------------------|
-|----------------------------------|---------------------------3-3-3-|
-|---------5\4-----3/4---4---4---^--|---------5\4-----3/4---4---1-1-1-|
-|-0-000-0-3\2-0-0-5/6-0-2-0-2-0-2~-|-0-000-0-3\2-0-0-5/6-0-2-0-------|
   . ... .     . .     .   .   .      . ... .     . .     .   .

 -[ending 2]----------------------------------|
 ---------------------------------------------|
 ---------------------------------------------|
 ---------------------------------------------|
 ---------5\4-----3/4---4------8------8-------|
 -0-000-0-3\2-0-0-5/6-0-2------6------6-------|
  . ... .     . .     . .      .      .

[Riff 4a (x4)]
|-----------------------------------|-------------------------------------|
|-----------------------------------|-------------------------------------|
|-----------------------------------|-------------------------------------|
|-4"----------------5"------6"--7"--|-4"---------------------9"-------10"-|
|-----------------------------------|-------------------6"7"-----7"8"-----|
|-----2"--0"-1"-2"------3"----------|-----2"--0"-1"-2"--------------------|

[Riff 4b (x2)]
|-----------------------------------|-------------------------------------|
|-----------------------------------|-------------------------------------|
|-----------------------------------|-------------------------------------|
|-4"----------------5"------6"--7"--|-4"---------------------9"-------10"-|
|-----------------------------------|-------------------6"7"-----7"8"-----|
|-----2"--0"-1"-2"------3"----------|-----2"--0"-1"-2"--------------------|
|                                   |                                     |
|-----------------------------------|-------------------------------------|
|-----------------------------------|-------------------------------------|
|-----------------------------------|------------------------11"------12"-|
|-4"----------------5"------6"--7"--|-4"----------------8"9"-----9"10"----|
|-----------------------------------|-------------------------------------|
|-----2"--0"-1"-2"------3"----------|-----2"--0"-1"-2"--------------------|

[Riff 5 (x3)]
|--------------------------------|--------------------------------|-
|--------------------------------|--------------------------------|-
|--------------------------------|--------------------------------|-
|--------------------------------|--------------------------------|-
|---------4/5---------4/5-----7--|---------222---------333-----^--|-
|-0-0-0-0-2/3-0-0-0-0-2/3-0-0-5--|-000-111-----000-222-----000-3~-|-
  . . . .     . . . .     . .      ... ... ... ... ... ... ...

-|------------------------------|--------------------------------|
-|------------------------------|--------------------------------|
-|------------------------------|--------------------------------|
-|------------------------------|-----------------------------^--|
-|---------7/8---------5--4--5--|---------333---------222-----1~-|
-|-0-0-0-0-5/6-0-0-0-0-3--2--3--|-000-444-----000-333-----000----|
   . . . .     . . . .            ... ... ... ... ... ... ...

[Riff 6a (x2)]
|---------------------------|------------------------|-
|---------------------------|------------------------|-
|---------------------------|------------------------|-
|-------5-------------------|-------5----------------|-
|-2--3--3--3--2-3-2-3-6--5--|-2--3--3--3--2-3-2-3-6--|-
|-0--1-----1--0-1-0-1-4--3--|-0--1-----1--0-1-0-1-4--|-

-|---------------------------|-------------------------|
-|---------------------------|-------------------------|
-|---------------------------|-------------------------|
-|-------5-------------------|-------------------------|
-|-2--3--3--3--2-3-2-3-6--5--|---5-5-6-5-5-5-3-5-5-5-3-|
-|-0--1-----1--0-1-0-1-4--3--|-0-3-3-4-3-3-3-1-3-3-3-1-|
                               . . . . . . . . . . . .

[Riff 6b]
|-------------------------------------|-----------------------------------|-
|-------------------------------------|-----------------------------------|-
|-------------------------------------|-----------------------------------|-
|-------------------------------------|-----------------------------------|-
|---------3"--------------------------|---------3"------------------------|-
|-0"--1"------1"--0"-1"-0"-1"-4"--3"--|-0"--1"------1"--0"-1"-0"-1"-4"----|-

-|-------------------------------------|-------------------------|
-|-------------------------------------|-------------------------|
-|-------------------------------------|-------------------------|
-|-------------------------------------|-------------------------|
-|---------3"--------------------------|---5-5-6-5-5-5-3-5-5-5-3-|
-|-0"--1"------1"--0"-1"-0"-1"-4"--3"--|-0-3-3-4-3-3-3-1-3-3-3-1-|
                                         . . . . . . . . . . . .

[Riff 7 (x2) /slow down/]
|---------------------------|---------------------------|-
|---------------------------|---------------------^-----|-
|---------------------------|---------------------4~~~--|-
|-------5-------------------|-------5-------------------|-
|-2--3--3----3--2-3-2-6--5--|-2--3--3----3--2-3-2-------|-
|-0--1-----0-1--0-1-0-4--3--|-0--1-----0-1--0-1-0-------|-

-|---------------------------|-------------------------|
-|---------------------------|-------------------------|
-|---------------------------|-------------------------|
-|-------5-------------------|-------------------------|
-|-2--3--3----3--2-3-2-6--5--|---5-5-6-5-5-5-3-5-5-5-3-|
-|-0--1-----0-1--0-1-0-4--3--|-0-3-3-4-3-3-3-1-3-3-3-1-|
                               . . . . . . . . . . . .

END OF SONG

  Visit MetalTabs.com for more metal tablature

bottom separator

Contact Us | Privacy Policy | Disclaimer | Legal Notice
Copyright © 2001-2014 MetalTabs.com. All Rights Reserved.