top separator

Home

Forum

What's New

Submit a Tab

FAQ

Links

Contact Us

Link to Us

MetalTabs.com logo

Bands

0-9

A

B

C

D

E

F

G

H

I

J

K

L

M

N

O

P

Q

R

S

T

U

V

W

X

Y

Z

Search

What

Where
 

Malevolent Creation - "Night Of The Long Knives" Guitar Tab

Plain Text Version
More Malevolent Creation Tabs

Hits: 2573
Rated: 5.00 out of 5 (1 vote)
Updated: 2006-01-28 19:59:02

 

By:

travI56669

sendpm.gif

email.gif

Important note
This tab is available online because we obtained explicit permission from Malevolent Creation or their label.


#----------------------------------PLEASE NOTE---------------------------------#
#This file is the author's own work and represents their interpretation of the #
#song. You may only use this file for private study, scholarship, or research. #
#Unless specified otherwise, this is NOT an official tab from the band members.#
#------------------------------------------------------------------------------#

  Visit MetalTabs.com for more metal tablature
  
Band:  Malevolent Creation
Album: Envenomed
Song:  Night of the Long Knives
Version 1 - 1/15/06
Transcribed By: travI56669
Email: marilynmaggot@yahoo.com

.  - palm mute           /  - slide up to
\  - slide down to       ~  - vibrato
h  - hammer on           b  - Bend
p  - pull off            Suffixes for bend
t  - tap                 f  - full bend    h - half bend
ph - pinched harmonic    q  - quarter bend t - tap bend
*  - see comment         ^  - Hold bend    r release bend
x  - Stuccatto           ~  - vibrato bend
,  - slight palm mute    () - ghost note, sustained note
"  - tremolo note        <> - Trill
Both guitars - C# F# B E G# C#
This is the first time I actually figured out any solos so make
sure you rate it and email me with comments or corrections....
Intro
|--------------|--------------------------------------------------------------|
|--------------|--------------------------------------------------------------|
|--------------|--------------------------------------------------------------|
|--------------|------------------------------------------2--3-2--5-4--6-3--5-|
|---32----21---|--------------------------------2-1-------2--3-2--5-4--6-3--5-|
|-23--2323--23-|-0"---1"-0"---2"-0"---1"--2-3-0-----0-2-3-0--1-0--3-2--4-1--3-|
  ............                             . . . . . . . .
Main Riff
|--------------------------------------------------------------------------|
|--------------------------------------------------------------------------|
|--------------------------------------------------------------------------|
|--------------------------------------------------------------------------|
|--------------------------------2-1---------------------------------------|
|-0"---1"-0"---2"-0"---1"--2-3-0-----0-2-3-0"---1"-0"---3"-2"---4"-1"--3"--|
Solo Rhythm                . . .     . . .
|-------------------------------------------------|
|-------------------------------------------------|
|-------------------------------------------------|
|-------------------------------------------------|
|-2-----3-----------2-3--2-----3-----------3/6-6--|
|-0-0-0-1-0-0-0-0-0-0-1--0-0-0-1-0-0-0-0-0-1/4-4--|play this after you
   . .    . . . . .        . .   . . . . .         play the solo rhythm 2X
|-------------------------------------------------|--------------|
|-------------------------------------------------|--------------|
|-------------------------------------------------|--------------|
|-------------------------------------------------|--------------|
|-2-----3-----------2-3--2-----3---------3-2------|-----2-1------|
|-0-0-0-1-0-0-0-0-0-0-1--0-0-0-1-0-0-2-3-----2-3--|-2-3-----2-3--|
    . .   . . . . .        . .   . . . .     . .    . .     . .
Solo 1
|-NH12~~--------------------15"--14"--12"--10"------------|
|-------------9-10p9--------17"--15"--13"--12"-12"--12~~--|
|--------9-10--------9-10~---------------------14"--------|
|---------------------------------------------------------|
|---------------------------------------------------------|
|---------------------------------------------------------|
* - I'm not real sure what's going on here but divebomb.. Pull up on your
|---------------------------------------------------------whammy-bar-here--|
|-12h13----12----12h13-----------------------------------------------------|
|-------14----14-------13~~-------------------------------NH7~^^^----------|
|--------------------------------------------------------------------------|
|----------------------------*---------------------------------------------|
|----------------------------15^p0--15^p0--17^p0--17^15p0------------------|
Here are the endings for this riff you just
need to figure out how many times to play them
Breakdown Riff
|----------|----------|------------------|-----------------------|
|----------|----------|------------------|-----------------------|
|----------|----------|------------------|-----------------------|
|----9/10--|----9/12--|-----------10/12--|------------12--9-10---|
|-2--7/8---|-2--7/10--|-7h8p7------8/10--|-7h8p7------10--7--8---|
|-0--7/8---|-0--7/10--|-------10-9-8/10--|-------10-9-10--7--8---|
  .          .                 . .                . .
|-----------------------------------------------------------------------|
|-----------------------------------------------------------------------|
|-----------------------------------------------------------------------|
|-----------------------------------------------------------------------|
|-----77778888----77778888------------77778888----10101010888855778888--|
|-0000--------0000--------000000000000--------0000----------------------|
  ................................................. . . . ............
*  - Is played by Guitar II
|---------------------------------------------------------------------------|
|---------------------------------------------------------------------------|
|-------------------------------------------------*********-*-*-*-*-*-*-*---|
|-------------------------------------------------666666669-9-9-9-9-9-9-9---|
|-----77778888----77778888------------77778888----888888881111111111111111--|
|-0000--------0000--------000000000000--------0000--------------------------|
  ......................................................... . . . . . . .
|-----------------------------------------------------------------------|
|-----------------------------------------------------------------------|
|-----*********************************************-*-*-*-************--|
|-----55556666----55556666------------55556666----8-8-8-8-666633556666--|
|-----77778888----77778888------------77778888----10101010888855778888--|
|-0000--------0000--------000000000000--------0000----------------------|
  ................................................. . . . .............
|-------------------------------------------------------------------|
|-------------------------------------------------------------------|
|-----********----********------------********----****************--|
|-----55556666----55556666------------55556666----6666666633333333--|
|-----77778888----77778888------------77778888----8888888855555555--|
|-0000--------0000--------000000000000--------0000------------------|
  ................................................................
Guitar II plays this after a while
|------------------------------------------------|
|------------------------------------------------|
|------------------------------------------------|
|------------------------------------------------|
|-2----2----2222222--------10101010888855778888--|
|-0----0----0000000----0000----------------------|
  .    .    .......    ..... . . . ............
Solo 2
During this whole solo shake the shit out of your whammy bar...
|-NH5~~-12<15>--15fb-----------------------------------------------------|
|----------------------14h15p14p12---------------------------------------|
|---------------------------------14p12-14p12--12------------------------|
|--------------------\-----------------------14--14p12-14p12--12---------|
|--------------------\--------------------------------------14--14-13~~--|
|--------------------\---------------------------------------------------|
* - Pull up on your whammy bar
|--------------------------------------------------------------|
|-12h15p12--12h15p12h15p12--12h15p12h15p12--12h15p12p0hNH5~^^--|
|---------14--------------14--------------14-----------*-------|
|--------------------------------------------------------------|
|--------------------------------------------------------------|
|--------------------------------------------------------------|
END

  Visit MetalTabs.com for more metal tablature

bottom separator

Contact Us | Privacy Policy | Disclaimer | Legal Notice
Copyright © 2001-2014 MetalTabs.com. All Rights Reserved.