top separator

Home

Forum

What's New

Submit a Tab

FAQ

Links

Contact Us

Link to Us

MuSpy.com

MetalTabs.com logo

Bands

0-9

A

B

C

D

E

F

G

H

I

J

K

L

M

N

O

P

Q

R

S

T

U

V

W

X

Y

Z

Search

What

Where
 

Lord Gore - "The Forgotten Flesh" Guitar Tab

Plain Text Version
More Lord Gore Tabs

Hits: 1664
Rated: 5.00 out of 5 (2 votes)
Updated: 2006-01-28 19:55:55

 

By:

sendpm.gif

email.gif

Important note
This tab is available online because we obtained explicit permission from Lord Gore or their label.


#----------------------------------PLEASE NOTE---------------------------------#
#This file is the author's own work and represents their interpretation of the #
#song. You may only use this file for private study, scholarship, or research. #
#Unless specified otherwise, this is NOT an official tab from the band members.#
#------------------------------------------------------------------------------#

  Visit MetalTabs.com for more metal tablature
  
Band:  Lord Gore
Album: Autophagus Orgy
Song:  Forgotten Flesh

Copyright (c)  Razorbackrecords
Version 1.0 - 1/23/06

Transcribed By: Jorge
Email:          xlos_crudos4x@yahoo.com


.  - palm mute           /  - slide up to
\  - slide down to       ~  - vibrato
h  - hammer on           b  - Bend
p  - pull off            Suffixes for bend
t  - tap                 f  - full bend    h - half bend
ph - pinched harmonic    q  - quarter bend t - tap bend
*  - see comment         ^  - Hold bend    r release bend
x  - Stuccatto           ~  - vibrato bend
,  - slight palm mute    () - ghost note, sustained note
"  - tremolo note        <> - Trill

Tune down 2.5 steps

 Left guitar                       * = Let ring
|-------------------------------------------------------------------------|
|-------------------------------------------------------------------------|
|-------------------------------------------------------------------------|
|-2*----------------2-----------------2*----------------------------------|
|-2-----------------2-----------------2-----------------------------------|
|-0-----------------0-----------------0-----------------000---000---000---|
                                                        ...   ...   ...
                                                                        }x1
 Right guitar
|-------------------------------------------------------------------------|
|-------------------------------------------------------------------------|
|-------------------------------------------------------------------------|
|-------------------------------------------------------------------------|
|-------------------------------------------------------------------------|
|-0"-3"-6"-5"-3"-5"-0"-3"-6"-5"-3"-5"-0"-3"-6"-5"-3"-5"-0"-3"-6"-5"-3"-5"-|



 Riff 1
|-------------------|End of riff 1
|-------------------|
|-------------------|
|-------------------|x8
|-------------------|
|-0"-3"-6"-5"-3"-5"-|


 Riff 2
|--------------------------------|End of riff 2
|--------------------------------|
|--------------------------------|
|-2--5-5-8-7-5-7--2--5-5-8-7-5-7-|x4
|-2--5-5-8-7-5-7--2--5-5-8-7-5-7-|
|-0--3-3-6-5-3-5--0--3-3-6-5-3-5-|
                         . . . .

 Riff 3
|--------------------------------------------|End of riff 3
|--------------------------------------------|
|--------------------------------------------|
|---2-----2---------------3-----3------------|x1
|---2-----2---/9-8--------3-----3---/6-5-----|
|-0-0-0-0-0-0------7-6--1-1-1-1-1-1------4-3-|
  .   . .   .           .   . .   .

 Riff 3a
|-----------------------------------------------|End of riff 3a
|-----------------------------------------------|
|-----------------------------------------------|
|---2-----2---------------3-----3---------------|x1
|---2-----2---/9-8--------3-----3---5ph-4ph-3ph-|
|-0-0-0-0-0-0------7-6--1-1-1-1-1-1-------------|
  .   . .   .           .   . .   .

Riff 3  x1


 Riff 3b
|--------------------------------------------------|End of riff 3b
|--------------------------------------------------|
|--------------------------------------------------|
|---2-----2------------------3-----3---------------|x1
|---2-----2---/9"-8"---------3-----3---5ph-4ph-3ph-|
|-0-0-0-0-0-0--------7"-6"-1-1-1-1-1-1-------------|
  .   . .   .     .  .  .  .   . .   .

Riff 3  x1
Riff 3a x1
Riff 3  x1
Riff 3b x1


 Left guitar
|---------------------------------------------------------------------|
|---------------------------------------------------------------------|
|---------------------------------------------------------------------|
|-2*----------------2-----------------2*------------------------------|
|-2-----------------2-----------------2-------------------------------|
|-0-----------------0-----------------0-----------------000--000-000--|
                                                        ...  ... ...
                                                                   } x1
 Right guitar
|---------------------------------------------------------------------|
|---------------------------------------------------------------------|
|---------------------------------------------------------------------|
|---------------------------------------------------------------------|
|---------------------------------------------------------------------|
|-0"-3"-6"-5"-3"-5"-0"-3"-6"-5"-3"-5"-0"-3"-6"-5"-3"-5"-000--000--000-|
                                                        ...  ...  ...

 Riff 3c
|------------------------------------|End of riff 3c
|------------------------------------|
|------------------------------------|
|-------------------x3-------8-7-5-7-|
|----------------------------8-7-5-7-|
|-0"-3"-6"-5"-3"-5"----0"-3"-6-5-3-5-|


 End w/
|---|
|---|
|---|
|-2-|
|-2-|
|-0-|

  Visit MetalTabs.com for more metal tablature

bottom separator

Contact Us | Privacy Policy | Disclaimer | Legal Notice
Copyright © 2001-2014 MetalTabs.com. All Rights Reserved.