top separator

Home

Forum

FAQ

Contact Us

Link to Us

MetalTabs.com logo

Bands

0-9

A

B

C

D

E

F

G

H

I

J

K

L

M

N

O

P

Q

R

S

T

U

V

W

X

Y

Z

Lamb of God - "Hourglass" Guitar Tab

Plain Text Version
More Lamb of God Tabs

Hits: 14828
Rated: 4.18 out of 5 (11 votes)
Updated: 2006-03-10 03:06:09

By:


#----------------------------------PLEASE NOTE---------------------------------#
#This file is the author's own work and represents their interpretation of the #
#song. You may only use this file for private study, scholarship, or research. #
#Unless specified otherwise, this is NOT an official tab from the band members.#
#------------------------------------------------------------------------------#

  Visit MetalTabs.com for more metal tablature
  
Band: Lamb Of God
Album: Ashes of the Wake
Song: Hourglass

Tabbed By: FUguitarplayerCK

pm - palm mute
h - hammer on
p - pull off
ss - slide
tuning: drop D (DADGBE)
repeat between the oís(when necessary)

intro riff: guitars 1&2
||---------------------------------------||
||o--------------------------------------||
||---------------------------------------||
||---------------------------------------||
||o---------7-8-----8-10-----------------||
||-000--000-----000------000--3-7-6-2----||
  pm-------     ---      ---

||---------------------------------------||   alternate way of playing that
||---------------------------------------||   B|-------10-9--|
||---------------------------10-9-14-13--||   G|--10-9-------|
||---------------------------------------||
||----------7-8-----8-11-----------------||
||-000--000-----000------000-------------||
 pm---  ---     ---      ---

||---------------------------------------||
||---------------------------------------||
||---------------------------------------||
||---------------------------------------||
||----------7-8-----8-10-----------------||
||-000--000-----000------000--3-7-6-2----||
  pm-------     ---      ---
                                         2x
||---------------------------------------||
||--------------------------------------o||
||---------------------------------------||
||----------------------------4h5p4------||
||----------6-5-----5-6-----6-----------o||
||-000--000-----000-----0-7--------------||
 pm---  ---     ---     -----
                  riff 2: guitars 1&2
||-------||       ||-------------------------------------------||
||-------|| short ||o------------------------------------------||
||-------|| little||-------------------------------------------||
||-------|| pause ||---------------------4h5p4-------8-7-6-----||
||-0-0-0-||       ||o------6p5---------6-----------------------||
||-0-0-0-||       ||-0-0-0-----0-0-0-7---------0-0-0-----------||
 pm-----          pm-----     ---------       -----

||----------------------------------------||
||----------------------------------------||
||----------------------------------------||
||----------------------------------------||
||-------6p5---5p4------------------------||
||-0-0-0-----0-----0-0-0-0-0-0-0-0-0-0-0--||
 pm-----     -     ---------------------

||----------------------------------------||
||----------------------------------------||
||----------------------------------------||
||----------------------------------------||
||-------6p5------------------------------||
||-0-0-0-----0-0-1-4h5p4-0-0-0-8-5-7------||
 pm-----     -----       -----

||----------------------------------------||
||----------------------------------------||
||----------------------------------------||
||----------------------------------------||
||-------6p5---5p4------------------------||
||-0-0-0-----0-----0-0-0-0-0-0-0-0-0-0-0--||
 pm-----     -     ---------------------

||----------------------------------------||
||----------------------------------------||
||----------------------------------------||
||---------------------4h5p4-------8-7-6--||
||-------6p5---------6--------------------||
||-0-0-0-----0-0-0-7---------0-0-0--------||
 pm-----     ---------       -----

||----------------------------------------||
||----------------------------------------||
||----------------------------------------||
||----------------------------------------||
||-------6p5---5p4------------------------||
||-0-0-0-----0-----0-0-0-0-0-0-0-0-0-0-0--||
 pm-----     -     ---------------------

||----------------------------------------||
||---------------------------------------o||
||----------------------------------------||
||----------------------------------------||
||-------6p5-----------------------------o||
||-0-0-0-----0-0-1-4h5p4-0-0-0-8-5-7------||
 pm-----     -----       -----

||-----------||
||o---------o||
||-----------||
||-----------||
||o-0-1-3-1-o||
||--0-1-3-1--||
 pm--------

riff 3: guitar 1
||------------------------------------------||-------------------------------||
||o-----------------------------------------||------------------------------o||
||------------------------------------------||-------------------------------||
||------------------------------------------||-------------------------------||
||o-------13-10h12-----13-10h12--------15---||------13-10h12--13-12---------o||
||--000-----0-----0-0-0--0-----12-12-12--13-||-0-0-0--0-----10-----9h10p9-6-5||
 pm----     -     -----  -     --------        -----  -     --



riff 3: guitar 2
||------------------------------------------||-------------------------------||
||o-----------------------------------------||------------------------------o||
||------------------------------------------||-------------------------------||
||------------------------------------------||-------------------------------||
||o------------------------------------15---||------------------------------o||
||--000------------------------12-12-12--13-||-------------------------------||
 pm----                        --------

riff 3(cont.): guitars 1&2                                                   3x
||------------------------------------------||-------------------------------||
||o-----------------------------------------||------------------------------o||
||------------------------------------------||-------------------------------||
||------------------------------------------||-------------------------------||
||o-------13-10h12-----13-10h12--------15---||------13-10h12--13-12---------o||
||--000-----0-----0-0-0--0-----12-12-12--13-||-0-0-0--0-----10-----9h10p9-6-5||
 pm----     -     -----  -     --------        -----  -     --

riff 4: guitars 1&2
||--------------------------------------------------||
||o-------------------------------------------------||
||--------------------------------------------------||
||--8-5ss7-8-5ss7-------------8-5ss7-10-10-8-8------||
||o-6-3ss5-6-3ss5-------------6-3ss5-8--8--6-6-0----||
||---0----0-0----0-0-0-0-0-0-0-0----0-----0----0----||
 pm  -    - -    ------------- -    -     -
						    2x
||--------------------------------------------------||
||o------------------------------------------------o||
||--------------------------------------------------||
||--8-5ss7-8-5ss7-------------8-5ss7----------------||
||o-6-3ss5-6-3ss5-------------6-3ss5--3-3---2-2-0--o||
||---0----0-0----0-0-0-0-0-0-0-0----0-3-3-0-2-2-0---||
 pm  -    - -    ------------- -    -     -

riff 5: guitars 1&2
||-------------------------------------------------------------||
||o------------------------------------------------------------||
||-------------------------------------------------------------||
||-------7----------7------------------------------------------||
||o-0-5-6--------5-6----------5-6-4---------5-6-3--------------||
||--------0-0-0-0----0-0-0-0-0-----0-0-0-0-0-----0-0-0-0-0-----||
 pm       -------    ---------     ---------     ---------

||-------------------------------------------------------------||
||------------------------------------------------------------o||
||-------------------------------------------------------------||
||-------7----------7------------------------------------------||
||--0-5-6--------5-6----------5-6-4---------5-6-3-------------o||
||--------0-0-0-0----0-0-0-0-0-----0-0-0-0-0-----6-5-4-5-4-3---||
 pm       -------    ---------     ---------     -----------
					        ^^play fast^^
||-------------------------------------------------------------||
||o------------------------------------------------------------||
||-------------------------------------------------------------||
||-------7----------7------------------------------------------||
||o-0-5-6--------5-6----------5-6-4---------5-6-3--------------||
||--------0-0-0-0----0-0-0-0-0-----0-0-0-0-0-----0-0-0-0-0-----||
 pm       -------    ---------     ---------     ---------

||-------------------------------------------------------------||
||o------------------------------------------------------------||
||-------------------------------------------------------------||
||-------7----------7------------------------------------------||
||o-0-5-6--------5-6----------5-6-4---------5-6-3--------------||
||--------0-0-0-0----0-0-0-0-0-----0-0-0-0-0-------------------||
 pm       -------    ---------     ---------

riff 6: guitars 1&2
||-------------------------------------------------------------||
||o------------------------------------------------------------||
||------9-------------9----------------------------------------||
||--7-8-7---------7-8-7---------7-8-6---------7-8-5------------||
||o-5-6-----------5-6-----------5-6-4---------5-6-3------------||
||-------0-0-0-0-0-----0-0-0-0-0-----0-0-0-0-0-----0-0-0-0-0---||
 pm      ---------     ---------     ---------     ---------

||-------------------------------------------------------------||
||o------------------------------------------------------------||
||------9-------------9----------------------------------------||
||--7-8-7---------7-8-7---------7-8-6---------7-8-5------------||
||o-5-6-----------5-6-----------5-6-4---------5-6-3------------||
||-------0-0-0-0-0-----0-0-0-0-0-----0-0-0-0-0-----6-5-4-5-4-3-||
 pm      ---------     ---------     ---------     ---------

||-------------------------------------------------------------||
||o------------------------------------------------------------||
||------9-------------9----------------------------------------||
||--7-8-7---------7-8-7---------7-8-6---------7-8-5------------||
||o-5-6-----------5-6-----------5-6-4---------5-6-3------------||
||-------0-0-0-0-0-----0-0-0-0-0-----0-0-0-0-0-----0-0-0-0-0---||
 pm      ---------     ---------     ---------     ---------

||-------------------------------------------------------------------------||
||o-----------------------------------------------------------------------o||
||------9-------------9----------------------------------------------------||
||--7-8-7---------7-8-7---------7-8-6---------7-8-5------------------------||
||o-5-6-----------5-6-----------5-6-4---------5-6-3-----------6-5-4-9-8-7-o||
||-------0-0-0-0-0-----0-0-0-0-0-----0-0-0-0-0-----6-5-4-5-4-3-------------||
 pm      ---------     ---------     ---------     ----------------------

riff 7: guitar 1
||----------------------------------------------------------------||
||o---------------------------------------------------------------||
||----------------------------------------------------------------||
||-----------------------11---------------------------------------||
||o-------12--------12-13--13-12-------12--------------13-12-11---||
||-0-12-13--13-12-13------------0-12-13--13-12-11-13-10-----------||
 pm-------  -------------       -------  --------------

||----------------------------------------------------------------||
||---------------------------------------------------------------o||
||----------------------------------------------------------------||
||-----------------------11---------------------------------------||
||--------12--------12-13--13-12-------12------------------------o||
||-0-12-13--13-12-13------------0-12-13--13-12--5-8-4-7-6-3-------||
 pm------  -----------       ------  ----------------


riff 7: guitar 2
||----------------------------------------------------------------||
||o-------^^^^^^^^^^^^^^^^^^^^^^^^^^^^^^^^^^^^^^^^----------------||
||--------LET THIS RING UNTIL THE TOP PART IS DONE----------------||
||--0-------------------------------------------------------------||
||o-0-------------------------------------------------------------||
||--0-------------------------------------------------------------||

riff 7: guitar 1
||----------------------------------------------------------------||
||o---------------------------------------------------------------||
||----------------------------------------------------------------||
||-----------------------11---------------------------------------||
||o-------12--------12-13--13-12-------12--------------13-12-11---||
||-0-12-13--13-12-13------------0-12-13--13-12-11-13-10-----------||
 pm-------  -------------       -------  --------------

||----------------------------------------------------------------||
||---------------------------------------------------------------o||
||----------------------------------------------------------------||
||-----------------------11---------------------------------------||
||--------12--------12-13--13-12-------12------------------------o||
||-0-12-13--13-12-13------------0-12-13---13-12--5-8-4-7-6-3------||
 pm-------   -------------       -------   ------------------

riff 7: guitar 2 (still ringing)
||----------------------------------------------------------------||
||o--------------------------------------------------------------o||
||----------------------------------------------------------------||
||--(0)-----------------------------------------------------------||
||o-(0)----------------------------------------------------------o||
||--(0)-----------------------------------------------------------||

riff 7: guitar 1                                                  2x
||----------------------------------------------------------------||
||o---------------------------------------------------------------||
||----------------------------------------------------------------||
||-----------------------11---------------------------------------||
||o-------12--------12-13--13-12-------12--------------13-12-11---||
||-0-12-13--13-12-13------------0-12-13--13-12-11-13-10-----------||
 pm-------  -------------       -------  --------------

||----------------------------------------------------------------||
||---------------------------------------------------------------o||
||----------------------------------------------------------------||
||-----------------------11---------------------------------------||
||--------12--------12-13--13-12-------12------------------------o||
||-0-12-13--13-12-13------------0-12-13---13-12--5-8-4-7-6-3------||
 pm-------   -------------       -------   ------------------

riff 7: guitar 2 (played behind guitar 1)                          2x
||-----------------------------------------------------------------||
||o----------------------------------------------------------------||
||-----------------------------------------------------------------||
||-------------------------15--------------------------------------||
||o--------15---------15-16--16-15-------15--------------16-15-14--||
||--0-15-16--16-15-16-------------0-15-16--16-15-15-16-15----------||
 pm--------  --------------       -------  --------------

||------------------------------------------------------------------||
||-----------------------------------------------------------------o||
||------------------------------------------------------------------||
||-----------------------15-----------------------------------------||
||--------15--------15-16--16-15-------15--------------------------o||
||-0-15-16--16-15-16------------0-15-16--16-15-5-8-4-7-6-3----------||
 pm-------  -------------       -------  -----------------

riff 8: guitars 1&2                                                      4x
||-----------------------------------------------------------------------||
||o---------------------------------------------------------------------o||
||-----------------------------------------------------------------------||
||-----------------------------------------------------------------------||
||o-0--------------1---------------3-------------5h6p5-8-7-5------------o||
||--0-5-8-4-7-3-6--1--5-8-4-7-3-6--3--5-8-4-7-3-6-----------5-8-4-7-6-3--||
 pm   -----------     -----------     -----------           -----------

riff 9: guitars 1&2                                                   2x
||--------------------------------------------------------------------||
||o------------------------------------------------------------------o||
||--------------------------------------------------------------------||
||--------------------------------------------------------------------||
||o--0-0-0-0-0-0-0-0-0-0-0-0----------0-0-0-0-0-0-0-0-0-0-0-0--------o||
||---0-0-0-0-0-0-0-0-0-0-0-0----------0-0-0-0-0-0-0-0-0-0-0-0---------||
pm   -----------------------          -----------------------

riff 10: guitar 1                       (repeat through the rest of song)
||-------||----------------------------------------------------------------||
||o-----o||o---------------------------------------------------------------||
||-------||----------------------------------------------------------------||
||-------||-----------------------11---------------------------------------||
||o-11-o||o-------12--------12-13--13-12-------12--------------13-12-11---||
||-------||-0-12-13--13-12-13------------0-12-13--13-12-11-13-10-----------||
          pm-------  -------------       -------  --------------

||----------------------------------------------------------------||
||---------------------------------------------------------------o||
||----------------------------------------------------------------||
||-----------------------11---------------------------------------||
||--------12--------12-13--13-12-------12------------------------o||
||-0-12-13--13-12-13------------0-12-13---13-12--5-8-4-7-6-3------||
 pm-------  -------------       -------   ------------------



riff 10: guitar 2 (behind guitar 1)                                   2x
||--------------------------------------------------------------------||
||o------------------------------------------------------------------o||
||--------------------------------------------------------------------||
||--------------------------------------------------------------------||
||o--0-0-0-0-0-0-0-0-0-0-0-0----------0-0-0-0-0-0-0-0-0-0-0-0--------o||
||---0-0-0-0-0-0-0-0-0-0-0-0----------0-0-0-0-0-0-0-0-0-0-0-0---------||
pm   -----------------------          -----------------------

riff 10: guitar 2 (still behind guitar 1)         repeat till end of song
||----------------------------------------------------------------------||
||o--------------------------------------------------------------------o||
||----------------------------------------------------------------------||
||----------------------------------------------------------------------||
||o--------------------------------------------------------------------o||
||---0-0-0-0-0-0--1-1-1-1-1-1-1--8-8-8-8-8-8-8--7-7-7-7-7--5-8-4-7-6-3--||
 pm ------------------------------------------------------------------
^^didnít feel like counting how many times you do each^^
						    just be sure to do the
	              					  ||-5-8-4-7-6-3||
						     (when guitar 1 does it)
end on this
||-----------||
||o---------o||
||-----------||
||-----------||
||o----0----o||
||-----0-----|| (let ring) for questions/comments my email is
                      guitargod9d@coxt.netor you can IM me at FUguitarplayerCK

  Visit MetalTabs.com for more metal tablature

bottom separator

Contact Us | Privacy Policy | Disclaimer
Copyright © 2001-2014 MetalTabs.com. All Rights Reserved.