top separator

Home

Forum

What's New

Submit a Tab

FAQ

Links

Contact Us

Link to Us

MuSpy.com

MetalTabs.com logo

Bands

0-9

A

B

C

D

E

F

G

H

I

J

K

L

M

N

O

P

Q

R

S

T

U

V

W

X

Y

Z

Search

What

Where
 

Almora - "Hands of Destiny" Guitar Tab

Plain Text Version
More Almora Tabs

Hits: 1833
Rated: 5.00 out of 5 (15 votes)
Updated: 2006-01-28 19:53:00

 

By:

sendpm.gif

email.gif

Important note
This tab is available online because we obtained explicit permission from Almora or their label.


#----------------------------------PLEASE NOTE---------------------------------#
#This file is the author's own work and represents their interpretation of the #
#song. You may only use this file for private study, scholarship, or research. #
#Unless specified otherwise, this is NOT an official tab from the band members.#
#------------------------------------------------------------------------------#

  Visit MetalTabs.com for more metal tablature
  
Band:  ALMORA
Album: 1945
Song:  HANDS OF DESTINY

Copyright (c)  ZIHNI MUSIC 2006
Version 1.0 - 22.01.2006

Transcribed By: GOKHAN BAKIN
Email:          gokhanbakin@yahoo.com


.  - palm mute           /  - slide up to
\  - slide down to       ~  - vibrato
h  - hammer on           b  - Bend
p  - pull off            Suffixes for bend
t  - tap                 f  - full bend    h - half bend
ph - pinched harmonic    q  - quarter bend t - tap bend
*  - see comment         ^  - Hold bend    r release bend
x  - Stuccatto           ~  - vibrato bend
,  - slight palm mute    () - ghost note, sustained note
"  - tremolo note        <> - Trill

Tuning E A D G B E



INTRO & MELODY


--------------------------|------------------------------|
--------------------------|------------------------------|
--4----0-2-4----2-4-0--2--|--2--4--0--2--4-2-------------|
--------------------------|------------------5-4-5-4-2-0-|
--------------------------|------------------------------|
--------------------------|------------------------------|


-------------------------|------------------------------|
----------------3-1------|------------------------------|
--4----0-2-4--------4----|--2--4--0--2--4-2-------------|
-------------------------|------------------5-4-5-4-2-0-|
-------------------------|------------------------------|
-------------------------|------------------------------|


--------------------------|------------------------------|
--------------------------|------------------------------|
--4----0-2-4----2-4-0--2--|--2--4--0--2--4-2-------------|
--------------------------|------------------5-4-5-4-2-0-|
--------------------------|------------------------------|
--------------------------|------------------------------|


--------------------------|---------------------------|-------------------|
--------------------------|---------------------------|-------------------|
-----------2--------------|-----------4-2-------------|-------------------|
--5----4-5------4--4-2-0--|--2------------5-4-5-4-2-0-|--2----------------|
--------------------------|---------------------------|-------------------|
--------------------------|---------------------------|-------------------|


UNDER THE INTRO

------------------------------|---------------------------|
------------------------------|---------------------------|
------------------------------|---------------------------|
--9---------------------------|--7-------------5--5---7---|
--7--7-7-7--7-7-7--7-7-7--7-7-|--5--5-5-5--5-5-3--3---5---|
------------------------------|---------------------------|


------------------------------|--------------------------|
------------------------------|--------------------------|
------------------------------|--------------------------|
--9---------------------------|--7-------------5----7----|
--7--7-7-7--7-7-7--7-7-7--7-7-|--5--5-5-5--5-5-3----5----|
------------------------------|--------------------------|


------------------------------|---------------------------|--------------------|
------------------------------|---------------------------|--------------------|
------------------------------|---------------------------|--------------------|
--9---------------------------|--7-------------5--5---7---|--5------7----------|
--7--7-7-7--7-7-7--7-7-7--7-7-|--5--5-5-5--5-5-3--3---5---|--3------5----------|
------------------------------|---------------------------|--------------------|


---------------------|
---------------------|
---------------------|
--9--------5----7----|
--7--------3----5----|
---------------------|





VERSE 1

---------------------------------|
---------------------------------|
---------------------------------|
--9------------------------------|
--7--7-7-7-7-7-7-7-7-7-7-7-7-7-7-|
---------------------------------|


--------------------------------|---------------------------------|
--------------------------------|---------------------------------|
--------------------------------|---------------------------------|
--5--------------7--------------|--9------------------------------|
--3--3-3-3-3-3-3-5--5-5-5-5-5-5-|--7--7-7-7-7-7-7-7-7-7-7-7-7-7-7-|
--------------------------------|---------------------------------|


---------------------------------------|---------------------------------|
---------------------------------------|---------------------------------|
---------------------------------------|---------------------------------|
--12--------------------7--------------|--9------------------------------|
--10--10-10-10-10-10-10-5--5-5-5-5-5-5-|--7--7-7-7-7-7-7-7-7-7-7-7-7-7-7-|
---------------------------------------|---------------------------------|


--------------------------------|---------------------------------|
--------------------------------|---------------------------------|
--------------------------------|---------------------------------|
--5--------------7--------------|--9------------------------------|
--3--3-3-3-3-3-3-5--5-5-5-5-5-5-|--7--7-7-7-7-7-7-7-7-7-7-7-7-7-7-|
--------------------------------|---------------------------------|


---------------------------------------|
---------------------------------------|
---------------------------------------|
--12--------------------7--------------|
--10--10-10-10-10-10-10-5--5-5-5-5-5-5-|
---------------------------------------|



PRE-CHORUS

--------------------|
--------------------|
--------------------|
--5--------7--------|
--3--------5--------|
--------------------|


----------------------------------|--------------------|
----------------------------------|--------------------|
----------------------------------|--------------------|
----------------------------------|--5--------2--------|
--7-7-7-7-7-7-7-7-7-7-7-7-7-7-7-7-|--3--------0--------|
----------------------------------|--------------------|


----------------------------------|
----------------------------------|
----------------------------------|
----------------------------------|
--2-2-2-2-2-2-2-2-2-2-2-2-2-2-2-2-|
----------------------------------|


CHORUS

------------------------|
------------------------|
------------------------|
--------9----------7----|
--7--7--7----5--5--5----|
------------------------|

------------------------|------------------------|------------------------|
------------------------|------------------------|------------------------|
------------------------|------------------------|------------------------|
--------5----x--5---7---|--------9----------7----|--------5----x--5---7---|
--3--3--3----x--3---5---|--7--7--7----5--5--5----|--3--3--3----x--3---5---|
------------------------|------------------------|------------------------|


------------------------|------------------------|------------------------|
------------------------|------------------------|------------------------|
------------------------|------------------------|------------------------|
--------9----------7----|--------5----x--5---7---|--------9----------7----|
--7--7--7----5--5--5----|--3--3--3----x--3---5---|--7--7--7----5--5--5----|
------------------------|------------------------|------------------------|



------------------------|
------------------------|
------------------------|
--------5----x--5---7---|
--3--3--3----x--3---5---|
------------------------|


MELODY

--------------------------|------------------------------|
--------------------------|------------------------------|
--4----0-2-4----2-4-0--2--|--2--4--0--2--4-2-------------|
--------------------------|------------------5-4-5-4-2-0-|
--------------------------|------------------------------|
--------------------------|------------------------------|



-------------------------|------------------------------|
----------------3-1------|------------------------------|
--4----0-2-4--------4----|--2--4--0--2--4-2-------------|
-------------------------|------------------5-4-5-4-2-0-|
-------------------------|------------------------------|
-------------------------|------------------------------|


--------------------------|------------------------------|
--------------------------|------------------------------|
--4----0-2-4----2-4-0--2--|--2--4--0--2--4-2-------------|
--------------------------|------------------5-4-5-4-2-0-|
--------------------------|------------------------------|
--------------------------|------------------------------|


--------------------------|---------------------------|-------------------|
--------------------------|---------------------------|-------------------|
-----------2--------------|-----------4-2-------------|-------------------|
--5----4-5------4--4-2-0--|--2------------5-4-5-4-2-0-|--2----------------|
--------------------------|---------------------------|-------------------|
--------------------------|---------------------------|-------------------|


UNDER THE MELODY

-------------------|----------------------|
-------------------|----------------------|
-------------------|----------------------|
--9----------------|--7--------5--5---7---|
--7----------------|--5--------3--3---5---|
-------------------|----------------------|


-------------------|---------------------|-------------------|
-------------------|---------------------|-------------------|
-------------------|---------------------|-------------------|
--9----------------|--7--------5----7----|--9----------------|
--7----------------|--5--------3----5----|--7----------------|
-------------------|---------------------|-------------------|

----------------------|--------------------|---------------------|
----------------------|--------------------|---------------------|
----------------------|--------------------|---------------------|
--7--------5--5---7---|--5------7----------|--9--------5----7----|
--5--------3--3---5---|--3------5----------|--7--------3----5----|
----------------------|--------------------|---------------------|


VERSE 2

---------------------------------|--------------------------------|
---------------------------------|--------------------------------|
---------------------------------|--------------------------------|
--9------------------------------|--5--------------7--------------|
--7--7-7-7-7-7-7-7-7-7-7-7-7-7-7-|--3--3-3-3-3-3-3-5--5-5-5-5-5-5-|
---------------------------------|--------------------------------|


---------------------------------|---------------------------------------|
---------------------------------|---------------------------------------|
---------------------------------|---------------------------------------|
--9------------------------------|--12--------------------7--------------|
--7--7-7-7-7-7-7-7-7-7-7-7-7-7-7-|--10--10-10-10-10-10-10-5--5-5-5-5-5-5-|
---------------------------------|---------------------------------------|
---------------------------------|--------------------------------|
---------------------------------|--------------------------------|
---------------------------------|--------------------------------|
--9------------------------------|--5--------------7--------------|
--7--7-7-7-7-7-7-7-7-7-7-7-7-7-7-|--3--3-3-3-3-3-3-5--5-5-5-5-5-5-|
---------------------------------|--------------------------------|


---------------------------------|---------------------------------------|
---------------------------------|---------------------------------------|
---------------------------------|---------------------------------------|
--9------------------------------|--12--------------------7--------------|
--7--7-7-7-7-7-7-7-7-7-7-7-7-7-7-|--10--10-10-10-10-10-10-5--5-5-5-5-5-5-|
---------------------------------|---------------------------------------|


PRE-CHORUS

--------------------|----------------------------------|--------------------|
--------------------|----------------------------------|--------------------|
--------------------|----------------------------------|--------------------|
--5--------7--------|----------------------------------|--5--------2--------|
--3--------5--------|--7-7-7-7-7-7-7-7-7-7-7-7-7-7-7-7-|--3--------0--------|
--------------------|----------------------------------|--------------------|


----------------------------------|
----------------------------------|
----------------------------------|
----------------------------------|
--2-2-2-2-2-2-2-2-2-2-2-2-2-2-2-2-|
----------------------------------|



CHORUS

------------------------|
------------------------|
------------------------|
--------9----------7----|
--7--7--7----5--5--5----|
------------------------|


------------------------|------------------------|------------------------|
------------------------|------------------------|------------------------|
------------------------|------------------------|------------------------|
--------5----x--5---7---|--------9----------7----|--------5----x--5---7---|
--3--3--3----x--3---5---|--7--7--7----5--5--5----|--3--3--3----x--3---5---|
------------------------|------------------------|------------------------|

------------------------|------------------------|------------------------|
------------------------|------------------------|------------------------|
------------------------|------------------------|------------------------|
--------9----------7----|--------5----x--5---7---|--------9----------7----|
--7--7--7----5--5--5----|--3--3--3----x--3---5---|--7--7--7----5--5--5----|
------------------------|------------------------|------------------------|


------------------------|
------------------------|
------------------------|
--------5----x--5---7---|
--3--3--3----x--3---5---|
------------------------|


UNDER THE SOLO

-------------------|--------------------|
-------------------|--------------------|
-------------------|--------------------|
--9----------------|--5--------7--------|
--7----------------|--3--------5--------|
-------------------|--------------------|


-------------------|---------------------|-------------------|
-------------------|---------------------|-------------------|
-------------------|---------------------|-------------------|
--9----------------|--12--------7--------|--9----------------|
--7----------------|--10--------5--------|--7----------------|
-------------------|---------------------|-------------------|


--------------------|-------------------|-------------------|
--------------------|-------------------|-------------------|
--------------------|-------------------|-------------------|
--5--------7--------|--5----------------|--7----------------|
--3--------5--------|--3----------------|--5----------------|
--------------------|-------------------|-------------------|


UNDER THE STRINGS

-----------------------|----------------------------|-----------------------|
-----------------------|----------------------------|-----------------------|
-----------------------|----------------------------|-----------------------|
----------9------------|----------5------------7----|----------9------------|
--7-7-7-7-7------------|--3-3-3-3-3----5-5-5-5-5----|--7-7-7-7-7------------|
-----------------------|----------------------------|-----------------------|


---------------------------------|-----------------------|
---------------------------------|-----------------------|
---------------------------------|-----------------------|
--------------12------------7----|----------9------------|
--10-10-10-10-10----5-5-5-5-5----|--7-7-7-7-7------------|
---------------------------------|-----------------------|


----------------------------|-----------------------|-----------------------|
----------------------------|-----------------------|-----------------------|
----------------------------|-----------------------|-----------------------|
----------5------------7----|----------5------------|----------7------------|
--3-3-3-3-3----5-5-5-5-5----|--3-3-3-3-3------------|--5-5-5-5-5------------|
----------------------------|-----------------------|-----------------------|



UNDER THE FLUTE & STRINGS MELODY

------------------------------|--------------------------|
------------------------------|--------------------------|
------------------------------|--------------------------|
--9---------------------------|--7-------------5----7----|
--7--7-7-7--7-7-7--7-7-7--7-7-|--5--5-5-5--5-5-3----5----|
------------------------------|--------------------------|
------------------------------|--------------------------|
------------------------------|--------------------------|
------------------------------|--------------------------|
--9---------------------------|--7-------------5----7----|
--7--7-7-7--7-7-7--7-7-7--7-7-|--5--5-5-5--5-5-3----5----|
------------------------------|--------------------------|


------------------------------|--------------------------|
------------------------------|--------------------------|
------------------------------|--------------------------|
--7---------------------------|--5-------------3----5----|
--5--5-5-5--5-5-5--5-5-5--5-5-|--3--3-3-3--3-3-1----3----|
------------------------------|--------------------------|


------------------------------|--------------------------|-------------------|
------------------------------|--------------------------|-------------------|
------------------------------|--------------------------|-------------------|
--7---------------------------|--5-------------3----5----|--9----------------|
--5--5-5-5--5-5-5--5-5-5--5-5-|--3--3-3-3--3-3-1----3----|--7----------------|
------------------------------|--------------------------|-------------------|


---------------------|-------------------|---------------------|
---------------------|-------------------|---------------------|
---------------------|-------------------|---------------------|
--7--------5----7----|--9----------------|--7--------5----7----|
--5--------3----5----|--7----------------|--5--------3----5----|
---------------------|-------------------|---------------------|


-------------------|---------------------|-------------------|
-------------------|---------------------|-------------------|
-------------------|---------------------|-------------------|
--7----------------|--5--------3----5----|--7----------------|
--5----------------|--3--------1----3----|--5----------------|
-------------------|---------------------|-------------------|


---------------------|
---------------------|
---------------------|
--5--------3----5----|
--3--------1----3----|
---------------------|


PRE-CHORUS

--------------------|----------------------------------|
--------------------|----------------------------------|
--------------------|----------------------------------|
--5--------7--------|----------------------------------|
--3--------5--------|--7-7-7-7-7-7-7-7-7-7-7-7-7-7-7-7-|
--------------------|----------------------------------|



--------------------|----------------------------------|
--------------------|----------------------------------|
--------------------|----------------------------------|
--5--------2--------|----------------------------------|
--3--------0--------|--2-2-2-2-2-2-2-2-2-2-2-2-2-2-2-2-|
--------------------|----------------------------------|


CHORUS

------------------------|------------------------|------------------------|
------------------------|------------------------|------------------------|
------------------------|------------------------|------------------------|
--------9----------7----|--------5----x--5---7---|--------9----------7----|
--7--7--7----5--5--5----|--3--3--3----x--3---5---|--7--7--7----5--5--5----|
------------------------|------------------------|------------------------|


------------------------|------------------------|------------------------|
------------------------|------------------------|------------------------|
------------------------|------------------------|------------------------|
--------5----x--5---7---|--------9----------7----|--------5----x--5---7---|
--3--3--3----x--3---5---|--7--7--7----5--5--5----|--3--3--3----x--3---5---|
------------------------|------------------------|------------------------|


------------------------|------------------------|
------------------------|------------------------|
------------------------|------------------------|
--------9----------7----|--------5----x--5---7---|
--7--7--7----5--5--5----|--3--3--3----x--3---5---|
------------------------|------------------------|


MELODY

--------------------------|------------------------------|
--------------------------|------------------------------|
--4----0-2-4----2-4-0--2--|--2--4--0--2--4-2-------------|
--------------------------|------------------5-4-5-4-2-0-|
--------------------------|------------------------------|
--------------------------|------------------------------|



-------------------------|------------------------------|
----------------3-1------|------------------------------|
--4----0-2-4--------4----|--2--4--0--2--4-2-------------|
-------------------------|------------------5-4-5-4-2-0-|
-------------------------|------------------------------|
-------------------------|------------------------------|


--------------------------|------------------------------|
--------------------------|------------------------------|
--4----0-2-4----2-4-0--2--|--2--4--0--2--4-2-------------|
--------------------------|------------------5-4-5-4-2-0-|
--------------------------|------------------------------|
--------------------------|------------------------------|


--------------------------|---------------------------|-------------------|
--------------------------|---------------------------|-------------------|
-----------2--------------|-----------4-2-------------|-------------------|
--5----4-5------4--4-2-0--|--2------------5-4-5-4-2-0-|--2----------------|
--------------------------|---------------------------|-------------------|
--------------------------|---------------------------|-------------------|


UNDER THE MELODY

-------------------|
-------------------|
-------------------|
--9----------------|
--7----------------|
-------------------|


----------------------|-------------------|---------------------|
----------------------|-------------------|---------------------|
----------------------|-------------------|---------------------|
--7--------5--5---7---|--9----------------|--7--------5----7----|
--5--------3--3---5---|--7----------------|--5--------3----5----|
----------------------|-------------------|---------------------|


-------------------|----------------------|--------------------|
-------------------|----------------------|--------------------|
-------------------|----------------------|--------------------|
--9----------------|--7--------5--5---7---|--5------7----------|
--7----------------|--5--------3--3---5---|--3------5----------|
-------------------|----------------------|--------------------|


---------------------|-------------------|----------------------|
---------------------|-------------------|----------------------|
---------------------|-------------------|----------------------|
--9--------5----7----|--9----------------|--7--------5--5---7---|
--7--------3----5----|--7----------------|--5--------3--3---5---|
---------------------|-------------------|----------------------|


-------------------|---------------------|-------------------|
-------------------|---------------------|-------------------|
-------------------|---------------------|-------------------|
--9----------------|--7--------5----7----|--9----------------|
--7----------------|--5--------3----5----|--7----------------|
-------------------|---------------------|-------------------|


----------------------|--------------------|---------------------|
----------------------|--------------------|---------------------|
----------------------|--------------------|---------------------|
--7--------5--5---7---|--5------7----------|--9--------5----7----|
--5--------3--3---5---|--3------5----------|--7--------3----5----|
----------------------|--------------------|---------------------|



-------------------||
-------------------||
-------------------||
--9----------------||
--7----------------||
-------------------||

END

  Visit MetalTabs.com for more metal tablature

bottom separator

Contact Us | Privacy Policy | Disclaimer | Legal Notice
Copyright © 2001-2014 MetalTabs.com. All Rights Reserved.