top separator

Home

Forum

What's New

Submit a Tab

FAQ

Links

Contact Us

Link to Us

MetalTabs.com logo

Bands

0-9

A

B

C

D

E

F

G

H

I

J

K

L

M

N

O

P

Q

R

S

T

U

V

W

X

Y

Z

Search

What

Where
 

Exumer - "Silent Death" Guitar Tab

Plain Text Version
More Exumer Tabs

Hits: 3816
Updated: 2006-01-28 19:39:43

 

By:

nick_fury

sendpm.gif

email.gif

Important note
We did our best to reach Exumer and ask for their permission to publish this tab. Unfortunately they did not respond to our requests or we could not find a way to contact them. This tab is available online until Exumer tells us to take it down.


#----------------------------------PLEASE NOTE---------------------------------#
#This file is the author's own work and represents their interpretation of the #
#song. You may only use this file for private study, scholarship, or research. #
#Unless specified otherwise, this is NOT an official tab from the band members.#
#------------------------------------------------------------------------------#

  Visit MetalTabs.com for more metal tablature
  
Band:  Exumer
Album: Possessed by Fire
Song:  Silent Death

Copyright (c)  Disaster 1986
Version 1.0 - 15.01.2006

Transcribed By: nick_fury
Email:          boltsick@wp.pl


.  - palm mute           /  - slide up to
\  - slide down to       ~  - vibrato
h  - hammer on           b  - Bend
p  - pull off            Suffixes for bend
t  - tap                 f  - full bend    h - half bend
ph - pinched harmonic    q  - quarter bend t - tap bend
*  - see comment         ^  - Hold bend    r release bend
x  - Stuccatto           ~  - vibrato bend
,  - slight palm mute    () - ghost note, sustained note
"  - tremolo note        <> - Trill

Same as with "Fallen Saint" - it was very difficult to
hear some parts from my scratched vinyl so it may be
not 100% accurate. I also wasn't able to write how some
harmonics are played because it's impossible to get
good harmonics on my poor guitar. Again, sorry for
the missing solos.

NOTES:
 - Listen to the album to get the correct rhythm.
 - Stanard tuning E A D G B E



 1ST SOLO RHYTHM (TAPPING)
|-------------------------|
|-------------------------|
|-------------------------|
|---7-----8-----5-----7---|
|---5-----6-----3-----5---|
|-------------------------|

 2ND SOLO RHYTHM (FAST)
|----------------------------------------------------------|----------|
|----------------------------------------------------------|----------|
|----------------------------------------------------------|----------|
|---7------------8------------5------------7--------2------|-2--------|
|---555555555555-666666666666-333333333333-55555555-0000---|-0---2----|
|----------------------------------------------------------|-----0----|
     ...........  ...........  ...........  .......  ...    last time
                                                            end with this
 VERSE RIFF
|-------------------------------------|
|-------------------------------------|
|-------------------------------------|
|---2-2-5---2-2-5-------------5---4---|
|---000-3---000-3---5---------3---2---|
|-------------------3-333333----------|
     .       .        ......
 BREAK FIG.1a
|-----------------------|
|-----------------------|
|-----------------------|
|---------5-------------|
|---0-0-0-3---0-0-0-5---|
|-------------------3---|

 BREAK FIG.1b
|-----------------------| 1st&2nd time
|-----------------------| one guitar
|-----------------------|
|-----------------------| 3rd&4th time
|---0-0-0-3---0-0-0-----| two guitars
|-------------------3---|

 CHORUS
|-----------------------------------------------------------|
|-----------------------------------------------------------|
|-----------------------------------------------------------|
|---------------------------------------------7-------------|
|---7-------------5-------------7-------------55555555555---|
|---55555555555---33333333333---55555555555-----------------|
     ..........    ..........    ..........    ..........
 BREAK FIG.2
|-------------------------------------|---------------|
|-------------------------------------|---------------|
|-------------------------------------|---------------|
|-------------------------------------|---------------|
|---7-----10--7-----10--7-----10--5---|---10--5---4---|
|---5-555-8---5-555-8---5-555-8---3---|---8---3---2---|
      ...       ...       ...          last time finish
                                       with these chords
 VERSE RIFF B
|---------------------------------------|
|---------------------------------------|
|---------------------------------------|
|---------------------------------------|
|---------------1-----3-----2-----------|
|---0-0-0-0-0-0---0-0---0-0---0-3-2-0---|
    . . . . . .   . .   . .   . . . .
 BREAK FIG.3
|-------------------------------------|
|-------------------------------------|
|-------------------------------------|
|-------------------------------------|
|----------7---9---10---------7---9---|
|---888888-5---7---8---888888-5---7---|

 BREAK FIG.4
|---------------------------------------|
|---------------------------------------|
|---------------------------------------|
|---------------------------12--11------|
|--------?--------?---------10--9-------|
|--0-0-0----0-0-0---0-0-0---------------|
 (couldn't get the harmonics here)

 3RD SOLO RHYTHM
|---------------------------------------|
|---------------------------------------|
|---------------------------------------|
|-------------------------9-----10--7---|
|-------------------------7-----8---5---|
|---000000000000000000000---------------|
    .....................
 LAST TIME:
|-------------------------------------------|
|-------------------------------------------|
|-------------------------------------------|
|-------------------------9-----10--7---4---|
|-------------------------7-----8---5---2---|
|---000000000000000000000-------------------|
    .....................

 END
|---------------|
|---------------|
|---------------|
|---------------|
|---5---4---2---|
|---3---2---0---|


:SONG STRUCTURE:
1st solo rhythm x 2
2nd solo rhythm x 4
verse riff      x 6
break fig.1a    x 4
verse riff      x 6
break fig.1b    x 4
chorus          x 2
break fig.2     x 4
verse riff b    x 10
break fig.3     x 2
verse riff b    x 10
E5 power chord
break fig.4     x 2
3rd solo rhythm x 6
verse riff      x 6
break fig.1     x 4
chorus          x 4
break fig.2     x 4
end
E5 on A string

  Visit MetalTabs.com for more metal tablature

bottom separator

Contact Us | Privacy Policy | Disclaimer | Legal Notice
Copyright © 2001-2014 MetalTabs.com. All Rights Reserved.