top separator

Home

Forum

What's New

Submit a Tab

FAQ

Links

Contact Us

Link to Us

MetalTabs.com logo

Bands

0-9

A

B

C

D

E

F

G

H

I

J

K

L

M

N

O

P

Q

R

S

T

U

V

W

X

Y

Z

Search

What

Where
 

Almora - "Shehrazad" Guitar Tab

Plain Text Version
More Almora Tabs

Hits: 4096
Rated: 5.00 out of 5 (17 votes)
Updated: 2006-01-20 04:16:49

 

By:

sendpm.gif

email.gif

Important note
This tab is available online because we obtained explicit permission from Almora or their label.


#----------------------------------PLEASE NOTE---------------------------------#
#This file is the author's own work and represents their interpretation of the #
#song. You may only use this file for private study, scholarship, or research. #
#Unless specified otherwise, this is NOT an official tab from the band members.#
#------------------------------------------------------------------------------#

  Visit MetalTabs.com for more metal tablature
  
Band:  ALMORA
Album: SHEHRAZAD
Song:  SHEHRAZAD

Copyright (c)  ZIHNI MUSIC 2004
Version 1.0 - 14/01/2006

Transcribed By: GOKHAN BAKIN
Email:          gokhanbakin@yahoo.com


.  - palm mute           /  - slide up to
\  - slide down to       ~  - vibrato
h  - hammer on           b  - Bend
p  - pull off            Suffixes for bend
t  - tap                 f  - full bend    h - half bend
ph - pinched harmonic    q  - quarter bend t - tap bend
*  - see comment         ^  - Hold bend    r release bend
x  - Stuccatto           ~  - vibrato bend
,  - slight palm mute    () - ghost note, sustained note
"  - tremolo note        <> - Trill

Tuning E A D G B E


TEMPO:   INTRO                         100 BPM         4/4
	 VERSE A 			92 BPM 	        4/4
	 VERSE B 			168 BPM  	5/8
	 CHORUS 			100 BPM	        4/4
	 GUITAR & CHOIR SOLO    -	168 BPM 	9/8
	 BRIDGE			-	186 BPM	        4/4



INTRO


E||------------------------------|------------------------------|
B||------------------------------|------------------------------|
G||------------------------------|------------------------------|
D||--1-2-4--2-1------------------|--1-2-4--2-1------------------|
A||-------------3--2--2-2-2--2-2-|-------------3--2--2-2-2--2-2-|
E||------------------------------|------------------------------|


------------------------------|--------------------------|
------------------------------|--------------------------|
------------------------------|--------------------3--4--|
--2-1-------------------------|--------1--2--4--5--------|
------3--2-3-2-0-2-3-2-0-3----|--2--3--------------------|
------------------------------|--------------------------|


------------------------------|------------------------------|
------------------------------|------------------------------|
------------------------------|------------------------------|
--1-2-4--2-1------------------|--1-2-4--2-1------------------|
-------------3--2--2-2-2--2-2-|-------------3--2--2-2-2--2-2-|
------------------------------|------------------------------|


------------------------------|--------------------------|
------------------------------|--------------------------|
------------------------------|--------------------3--4--|
--2-1-------------------------|--------1--2--4--5--------|
------3--2-3-2-0-2-3-2-0-3----|--2--3--------------------|
------------------------------|--------------------------|

VERSE A

----------------------|----------------------|----------------------|
----------------------|----------------------|----------------------|
----------------------|----------------------|----------------------|
--4-4-------5-5-------|--5-5-------2-2-------|--4-4-------5-5-------|
--2-2-------3-3-------|--3-3-------0-0-------|--2-2-------3-3-------|
----------------------|----------------------|----------------------|


----------------------|-----------------|-----------------|-----------------|
----------------------|-----------------|-----------------|-----------------|
----------------------|-----------------|-----------------|-----------------|
--5-5-------2-2-------|--------4--------|--------4--------|--------4--------|
--3-3-------0-0-------|--2--2-----2--2--|--2--2-----2--2--|--2--2-----2--2--|
----------------------|-----------------|-----------------|-----------------|




VERSE B

-----------------|-----------------|-----------------|-----------------|
-----------------|-----------------|-----------------|-----------------|
-----------------|-----------------|-----------------|-----------------|
--------4--------|--------5--------|--------5--------|--------2--------|
--2--2-----2--2--|--3--3-----3--3--|--3--3-----3--3--|--0--0-----0--0--|
-----------------|-----------------|-----------------|-----------------|
-----------------|-----------------|-----------------|-----------------|
-----------------|-----------------|-----------------|-----------------|
-----------------|-----------------|-----------------|-----------------|
--------2--------|--------4--------|--------4--------|--------4--------|
--0--0-----0--0--|--2--2-----2--2--|--2--2-----2--2--|--2--2-----2--2--|
-----------------|-----------------|-----------------|-----------------|
-----------------|-----------------|-----------------|-----------------|
-----------------|-----------------|-----------------|-----------------|
-----------------|-----------------|-----------------|-----------------|
--------4--------|--------5--------|--------5--------|--------2--------|
--2--2-----2--2--|--3--3-----3--3--|--3--3-----3--3--|--0--0-----0--0--|
-----------------|-----------------|-----------------|-----------------|

                                      CHORUS

-----------------|-------------------|-------------------------------|
-----------------|-------------------|-------------------------------|
-----------------|-------------------|-------------------------------|
--------2--------|--4----------------|-------------------------------|
--0--0-----0--0--|--2----------------|--2-2-2-2-2--2-2-2-2-2--2-2-2--|
-----------------|-------------------|-------------------------------|


-------------------------------|-------------------------------|
-------------------------------|-------------------------------|
-------------------------------|-------------------------------|
-------------------------------|-------------------------------|
--3-3-3-3-3--3-3-3-3-3--3-3-3--|--0-0-0-0-0--0-0-0-0-0--0-0-0--|
-------------------------------|-------------------------------|


-------------------------------|-------------------------------|
-------------------------------|-------------------------------|
-------------------------------|-------------------------------|
-------------------1-2-1-------|-------------------------------|
--3-3-3--0-0-0--2--------3-2-0-|--2-2-2-2-2--2-2-2-2-2--2-2-2--|
-------------------------------|-------------------------------|


-------------------------------|-------------------------------|
-------------------------------|-------------------------------|
-------------------------------|-------------------------------|
-------------------------------|-------------------------------|
--3-3-3-3-3--3-3-3-3-3--3-3-3--|--0-0-0-0-0--0-0-0-0-0--0-0-0--|
-------------------------------|-------------------------------|


				INTRO

-------------------------|------------------------------|
-------------------------|------------------------------|
-------------------------|------------------------------|
----------------4--------|--1-2-4--2-1------------------|
--3-3-3--0-0-0--2--------|-------------3--2--2-2-2--2-2-|
-------------------------|------------------------------|





------------------------------|------------------------------|
------------------------------|------------------------------|
------------------------------|------------------------------|
--1-2-4--2-1------------------|--2-1-------------------------|
-------------3--2--2-2-2--2-2-|------3--2-3-2-0-2-3-2-0-3----|
------------------------------|------------------------------|


--------------------------|------------------------------|
--------------------------|------------------------------|
--------------------3--4--|------------------------------|
--------1--2--4--5--------|--1-2-4--2-1------------------|
--2--3--------------------|-------------3--2--2-2-2--2-2-|
--------------------------|------------------------------|


------------------------------|------------------------------|
------------------------------|------------------------------|
------------------------------|------------------------------|
--1-2-4--2-1------------------|--2-1-------------------------|
-------------3--2--2-2-2--2-2-|------3--2-3-2-0-2-3-2-0-3----|
------------------------------|------------------------------|

				 VERSE A

--------------------------|----------------------|----------------------|
--------------------------|----------------------|----------------------|
--------------------3--4--|----------------------|----------------------|
--------1--2--4--5--------|--4-4-------5-5-------|--5-5-------2-2-------|
--2--3--------------------|--2-2-------3-3-------|--3-3-------0-0-------|
--------------------------|----------------------|----------------------|

						      VERSE B

----------------------|----------------------|-----------------|
----------------------|----------------------|-----------------|
----------------------|----------------------|-----------------|
--4-4-------5-5-------|--5-5-------2-2-------|--------4--------|
--2-2-------3-3-------|--3-3-------0-0-------|--2--2-----2--2--|
----------------------|----------------------|-----------------|


-----------------|-----------------|-----------------|-----------------|
-----------------|-----------------|-----------------|-----------------|
-----------------|-----------------|-----------------|-----------------|
--------4--------|--------4--------|--------4--------|--------5--------|
--2--2-----2--2--|--2--2-----2--2--|--2--2-----2--2--|--3--3-----3--3--|
-----------------|-----------------|-----------------|-----------------|


-----------------|-----------------|-----------------|-----------------|
-----------------|-----------------|-----------------|-----------------|
-----------------|-----------------|-----------------|-----------------|
--------5--------|--------2--------|--------2--------|--------4--------|
--3--3-----3--3--|--0--0-----0--0--|--0--0-----0--0--|--2--2-----2--2--|
-----------------|-----------------|-----------------|-----------------|


-----------------|-----------------|-----------------|-----------------|
-----------------|-----------------|-----------------|-----------------|
-----------------|-----------------|-----------------|-----------------|
--------4--------|--------4--------|--------4--------|--------5--------|
--2--2-----2--2--|--2--2-----2--2--|--2--2-----2--2--|--3--3-----3--3--|
-----------------|-----------------|-----------------|-----------------|




-----------------|-----------------|-----------------|-------------------|
-----------------|-----------------|-----------------|-------------------|
-----------------|-----------------|-----------------|-------------------|
--------5--------|--------2--------|--------2--------|--4----------------|
--3--3-----3--3--|--0--0-----0--0--|--0--0-----0--0--|--2----------------|
-----------------|-----------------|-----------------|-------------------|


CHORUS

-------------------------------|-------------------------------|
-------------------------------|-------------------------------|
-------------------------------|-------------------------------|
-------------------------------|-------------------------------|
--2-2-2-2-2--2-2-2-2-2--2-2-2--|--3-3-3-3-3--3-3-3-3-3--3-3-3--|
-------------------------------|-------------------------------|


-------------------------------|-------------------------------|
-------------------------------|-------------------------------|
-------------------------------|-------------------------------|
-------------------------------|-------------------1-2-1-------|
--0-0-0-0-0--0-0-0-0-0--0-0-0--|--3-3-3--0-0-0--2--------3-2-0-|
-------------------------------|-------------------------------|


-------------------------------|-------------------------------|
-------------------------------|-------------------------------|
-------------------------------|-------------------------------|
-------------------------------|-------------------------------|
--2-2-2-2-2--2-2-2-2-2--2-2-2--|--3-3-3-3-3--3-3-3-3-3--3-3-3--|
-------------------------------|-------------------------------|


-------------------------------|-------------------------|
-------------------------------|-------------------------|
-------------------------------|-------------------------|
-------------------------------|----------------4--------|
--0-0-0-0-0--0-0-0-0-0--0-0-0--|--3-3-3--0-0-0--2--------|
-------------------------------|-------------------------|

GUITAR SOLO

-----------------------------|-----------------------------|
-----------------------------|-----------------------------|
-----------------------------|-----------------------------|
--------4-----4-----4--------|--------5-----5-----5--------|
--2--2-----2-----2-----2--2--|--3--3-----3-----3-----3--3--|
-----------------------------|-----------------------------|


-----------------------------|----------------------------|
-----------------------------|----------------------------|
-----------------------------|----------------------------|
--------2-----2-----2--------|--------4-----4-----5--4----|
--0--0-----0-----0-----0--0--|--2--2-----2-----2----------|
-----------------------------|----------------------------|


-----------------------------|-----------------------------|
-----------------------------|-----------------------------|
-----------------------------|-----------------------------|
--------4-----4-----4--------|--------5-----5-----5--------|
--2--2-----2-----2-----2--2--|--3--3-----3-----3-----3--3--|
-----------------------------|-----------------------------|



-----------------------------|----------------------------|
-----------------------------|----------------------------|
-----------------------------|----------------------------|
--------2-----2-----2--------|--------4-----4-----5--4----|
--0--0-----0-----0-----0--0--|--2--2-----2-----2----------|
-----------------------------|----------------------------|



-----------------------------|-----------------------------|
-----------------------------|-----------------------------|
-----------------------------|-----------------------------|
--------4-----4-----4--------|--------5-----5-----5--------|
--2--2-----2-----2-----2--2--|--3--3-----3-----3-----3--3--|
-----------------------------|-----------------------------|


-----------------------------|----------------------------|
-----------------------------|----------------------------|
-----------------------------|----------------------------|
--------2-----2-----2--------|--------4-----4-----5--4----|
--0--0-----0-----0-----0--0--|--2--2-----2-----2----------|
-----------------------------|----------------------------|


-----------------------------|-----------------------------|
-----------------------------|-----------------------------|
-----------------------------|-----------------------------|
--------4-----4-----4--------|--------5-----5-----5--------|
--2--2-----2-----2-----2--2--|--3--3-----3-----3-----3--3--|
-----------------------------|-----------------------------|


-----------------------------|----------------------------|
-----------------------------|----------------------------|
-----------------------------|----------------------------|
--------2-----2-----2--------|--------4-----4-----5--4----|
--0--0-----0-----0-----0--0--|--2--2-----2-----2----------|
-----------------------------|----------------------------|


CHOIR SOLO

--------------------------------------|--------------------------------------|
--------------------------------------|--------------------------------------|
--------------------------------------|--------------------------------------|
--------------------------------------|--------------------------------------|
--2-2-2-2-2-2-2-2-2-2-2-2-2-2-2-2-2-2-|--3-3-3-3-3-3-3-3-3-3-3-3-3-3-3-3-3-3-|
--------------------------------------|--------------------------------------|


--------------------------------------|--------------------------------------|
--------------------------------------|--------------------------------------|
--------------------------------------|--------------------------------------|
--------------------------------------|--------------------------------------|
--0-0-0-0-0-0-0-0-0-0-0-0-0-0-0-0-0-0-|--2-2-2-2-2-2-2-2-2-2-2-2-2-2-2-2-2-2-|
--------------------------------------|--------------------------------------|


--------------------------------------|--------------------------------------|
--------------------------------------|--------------------------------------|
--------------------------------------|--------------------------------------|
--------------------------------------|--------------------------------------|
--2-2-2-2-2-2-2-2-2-2-2-2-2-2-2-2-2-2-|--3-3-3-3-3-3-3-3-3-3-3-3-3-3-3-3-3-3-|
--------------------------------------|--------------------------------------|



--------------------------------------|--------------------------------------|
--------------------------------------|--------------------------------------|
--------------------------------------|--------------------------------------|
--------------------------------------|--------------------------------------|
--0-0-0-0-0-0-0-0-0-0-0-0-0-0-0-0-0-0-|--2-2-2-2-2-2-2-2-2-2-2-2-2-2-2-2-2-2-|
--------------------------------------|--------------------------------------|


BRIDGE

-------------------|------------------|-------------------|------------------|
-------------------|------------------|-------------------|------------------|
-------------------|------------------|-------------------|------------------|
--4----------------|------------------|--5----------------|------------------|
--2----------------|------------------|--3----------------|------------------|
-------------------|------------------|-------------------|------------------|


-------------------|------------------|-------------------|------------------|
-------------------|------------------|-------------------|------------------|
-------------------|------------------|-------------------|------------------|
--2----------------|------------------|--4----------------|------------------|
--0----------------|------------------|--2----------------|------------------|
-------------------|------------------|-------------------|------------------|


-------------------|------------------|-------------------|------------------|
-------------------|------------------|-------------------|------------------|
-------------------|------------------|-------------------|------------------|
--4----------------|------------------|--5----------------|------------------|
--2----------------|------------------|--3----------------|------------------|
-------------------|------------------|-------------------|------------------|


-------------------|------------------|-------------------|------------------|
-------------------|------------------|-------------------|------------------|
-------------------|------------------|-------------------|------------------|
--2----------------|------------------|--4----------------|------------------|
--0----------------|------------------|--2----------------|------------------|
-------------------|------------------|-------------------|------------------|

CHORUS

-------------------------------|-------------------------------|
-------------------------------|-------------------------------|
-------------------------------|-------------------------------|
-------------------------------|-------------------------------|
--2-2-2-2-2--2-2-2-2-2--2-2-2--|--3-3-3-3-3--3-3-3-3-3--3-3-3--|
-------------------------------|-------------------------------|


-------------------------------|-------------------------------|
-------------------------------|-------------------------------|
-------------------------------|-------------------------------|
-------------------------------|-------------------1-2-1-------|
--0-0-0-0-0--0-0-0-0-0--0-0-0--|--3-3-3--0-0-0--2--------3-2-0-|
-------------------------------|-------------------------------|


-------------------------------|-------------------------------|
-------------------------------|-------------------------------|
-------------------------------|-------------------------------|
-------------------------------|-------------------------------|
--2-2-2-2-2--2-2-2-2-2--2-2-2--|--3-3-3-3-3--3-3-3-3-3--3-3-3--|
-------------------------------|-------------------------------|



-------------------------------|-------------------------|
-------------------------------|-------------------------|
-------------------------------|-------------------------|
-------------------------------|----------------4--------|
--0-0-0-0-0--0-0-0-0-0--0-0-0--|--3-3-3--0-0-0--2--------|
-------------------------------|-------------------------|


INTRO


------------------------------|------------------------------|
------------------------------|------------------------------|
------------------------------|------------------------------|
--1-2-4--2-1------------------|--1-2-4--2-1------------------|
-------------3--2--2-2-2--2-2-|-------------3--2--2-2-2--2-2-|
------------------------------|------------------------------|


------------------------------|--------------------------|
------------------------------|--------------------------|
------------------------------|--------------------3--4--|
--2-1-------------------------|--------1--2--4--5--------|
------3--2-3-2-0-2-3-2-0-3----|--2--3--------------------|
------------------------------|--------------------------|


------------------------------|------------------------------|
------------------------------|------------------------------|
------------------------------|------------------------------|
--1-2-4--2-1------------------|--1-2-4--2-1------------------|
-------------3--2--2-2-2--2-2-|-------------3--2--2-2-2--2-2-|
------------------------------|------------------------------|


------------------------------|--------------------------|
------------------------------|--------------------------|
------------------------------|--------------------3--4--|
--2-1-------------------------|--------1--2--4--5--------|
------3--2-3-2-0-2-3-2-0-3----|--2--3--------------------|
------------------------------|--------------------------|


------------------------------|------------------------------|
------------------------------|------------------------------|
------------------------------|------------------------------|
--1-2-4--2-1------------------|--1-2-4--2-1------------------|
-------------3--2--2-2-2--2-2-|-------------3--2--2-2-2--2-2-|
------------------------------|------------------------------|


------------------------------|--------------------------|
------------------------------|--------------------------|
------------------------------|--------------------3--4--|
--2-1-------------------------|--------1--2--4--5--------|
------3--2-3-2-0-2-3-2-0-3----|--2--3--------------------|
------------------------------|--------------------------|


------------------------------|------------------------------|
------------------------------|------------------------------|
------------------------------|------------------------------|
--1-2-4--2-1------------------|--1-2-4--2-1------------------|
-------------3--2--2-2-2--2-2-|-------------3--2--2-2-2--2-2-|
------------------------------|------------------------------|



------------------------------|--------------------------|--------------------||
------------------------------|--------------------------|--------------------||
------------------------------|--------------------3--4--|--------------------||
--2-1-------------------------|--------1--2--4--5--------|--4-4---------------||
------3--2-3-2-0-2-3-2-0-3----|--2--3--------------------|--2-2---------------||
------------------------------|--------------------------|--------------------||


END

  Visit MetalTabs.com for more metal tablature

bottom separator

Contact Us | Privacy Policy | Disclaimer | Legal Notice
Copyright © 2001-2014 MetalTabs.com. All Rights Reserved.