top separator

Home

Forum

What's New

Submit a Tab

FAQ

Links

Contact Us

Link to Us

MuSpy.com

MetalTabs.com logo

Bands

0-9

A

B

C

D

E

F

G

H

I

J

K

L

M

N

O

P

Q

R

S

T

U

V

W

X

Y

Z

Search

What

Where
 

Lacrimas Profundere - "Ave End" Bass Tab

Plain Text Version
More Lacrimas Profundere Tabs

Hits: 3393
Rated: 5.00 out of 5 (6 votes)
Updated: 2006-01-20 04:16:36

 

By:

GeCkO

sendpm.gif

email.gif

Important note
This tab is available online because we obtained explicit permission from Lacrimas Profundere or their label.


#----------------------------------PLEASE NOTE---------------------------------#
#This file is the author's own work and represents their interpretation of the #
#song. You may only use this file for private study, scholarship, or research. #
#Unless specified otherwise, this is NOT an official tab from the band members.#
#------------------------------------------------------------------------------#

  Visit MetalTabs.com for more metal tablature
  
Band: Lacrimas profundere
Song: Ave End
Album: Ave end (2004)
Tabbed by: Gecko
5 string bass standard tuning (BEADG)

Intro
G|------------------------------------------------------------------------|
D|------------------------------------------------------------------------|
A|------------------------------------------------------------------------|
E|--3-----------------------------------3---------------------------------|
B|--------------------------------------------------------4---------------|

Chorus
G|-----------------------------------------------------------------------|
D|-----------------------------------------------------------------------|
A|-----------------------------------------------------------------------|
E|--3-3-3-3-3-3-3-3--3-3-3-3-3-3-3-3----------------------------1-1-1-1--|
B|------------------------------------4-4-4-4-4-4-4-4--1-1-1-1-----------|

Verse
G|----------------------------------------------------------------|
D|----------------------------------------------------------------|
A|--------------------------------------------------------0-------|
E|--3--3-3-3-3-3-3----3-3-3-3-3-------------------------6---------|
B|---------------------------------1--1-1-1-1-1-4--4-4-------6----|

Verse (var)
G|-----------------------------------------|
D|-----------------------------------------|
A|----------------------------------0------|
E|------------------------------6----------|
B|1--1--1--1--1--4--------4--4--------6----|


Interlude
G|--------------------------------------------------------------------------|
D|--------------------------------------------------------------------------|
A|--------------------------------------------------------------------------|
E|--3-----------------------------------------------------------------------|
B|--------------------1------------------4-----------------3----------------|

Bridge
G|----------------------------------------------------------------------|
D|----------------------------------------------------------------------|
A|----------------------------------------------------------------------|
E|--3-3-3-3-3-3-3-3--3-3-3-3-3-3-3-3------------------------------------|
B|------------------------------------1-1-1-1-1-1-1-1--1-1-1-1-1-1-1-1--|

G|----------------------------------------------------------------------|
D|----------------------------------------------------------------------|
A|----------------------------------------------------------------------|
E|----------------------------------------------------------------------|
B|--4-4-4-4-4-4-4-4--4-4-4-4-4-4-4-4--3-3-3-3-3-3-3-3--3-3-3-3-3-3-3-3--|

G|----------------------------------------------------------------------|
D|----------------------------------------------------------------------|
A|----------------------------------------------------------------------|
E|--3-3-3-3-3-3-3-3--3-3-3-3-3-3-3-3------------------------------------|
B|------------------------------------1-1-1-1-1-1-1-1--1-1-1-1-1-1-1-1--|

G|----------------------------------------------------------|
D|----------------------------------------------------------|
A|---------------------------------------------------0------|
E|-----------------------------------------------6----------|
B|--4-4-4-4-4-4-4-4--4-4-4-4-4-4-4-4--3---3---3---------6---|


End
G|------------------|
E|------------------|
A|------------------|
E|-3----------------|
B|------------------|

Structure:
Intro
Chorus      [x4]
Verse       [x4]
Chorus      [x4]
Verse       [x1]
Verse (Var) [x1]
Verse       [x3]
Chorus      [x4]
Interlude   [x2]
Bridge      [x1]
verse       [x4]
Ending      [x1]

  Visit MetalTabs.com for more metal tablature

bottom separator

Contact Us | Privacy Policy | Disclaimer | Legal Notice
Copyright © 2001-2014 MetalTabs.com. All Rights Reserved.