top separator

Home

Forum

What's New

Submit a Tab

FAQ

Links

Contact Us

Link to Us

MetalTabs.com logo

Bands

0-9

A

B

C

D

E

F

G

H

I

J

K

L

M

N

O

P

Q

R

S

T

U

V

W

X

Y

Z

Search

What

Where
 

Ethereal Woods - "The Woods Of Ancient Dreams" Guitar Tab

Plain Text Version
More Ethereal Woods Tabs

Hits: 1697
Updated: 2006-01-20 04:15:27

 

By:

Robbie Filth

sendpm.gif

email.gif

Important note
This tab is available online because we obtained explicit permission from Ethereal Woods or their label.


#----------------------------------PLEASE NOTE---------------------------------#
#This file is the author's own work and represents their interpretation of the #
#song. You may only use this file for private study, scholarship, or research. #
#Unless specified otherwise, this is NOT an official tab from the band members.#
#------------------------------------------------------------------------------#

  Visit MetalTabs.com for more metal tablature
  
Band: Ethereal Woods
Album: Thickthorn
Song: The Woods Of Ancient Dreams
Record Label: Supernal Records
Tuning: E A D G B E (Standard)

------------------------------------------------------------------
------------------------------------------------------------------
----0----0----0----0-----0-----0-----0-----0----0----0----0----0--
---2----2----2----2-----0-----0-----0-----0----0----0----0----0---
--2----2----2----2----10----10----10----10----9----9----9----9----
-0----0----0----0----8-----8-----8-----8-----7----7----7----7-----X4

----------------------------------------
----------------------------------------
----------------------------------------
-----------5----4--------------5--7--4--
-2----3----3----2----2----3----3--5--2--
-0----1--------------0----1-------------X2

--------------------------------------------------------------------
--------------------------------------------------------------------
--------------------------------------------------------------------
-----------------5555555544444444-----------------5555577744444444--
-22222222333333333333333322222222-22222222333333333333355522222222--
-0000000011111111-----------------0000000011111111------------------X2

-------------------
-------------------
-------------------
----------4--------
-5--------2--------
-3-----------------X4

------------------------------------------------------------------
------------------------------------------------------------------
----0----0----0----0-----0-----0-----0-----0----0----0----0----0--
---2----2----2----2-----0-----0-----0-----0----0----0----0----0---
--2----2----2----2----10----10----10----10----9----9----9----9----
-0----0----0----0----8-----8-----8-----8-----7----7----7----7-----X4

----------------------------------------
----------------------------------------
----------------------------------------
-----------5----4--------------5--7--4--
-2----3----3----2----2----3----3--5--2--
-0----1--------------0----1-------------X2

--------------------------------------------------------------------
--------------------------------------------------------------------
--------------------------------------------------------------------
-----------------5555555544444444-----------------5555577744444444--
-22222222333333333333333322222222-22222222333333333333355522222222--
-0000000011111111-----------------0000000011111111------------------X2

-------------------
-------------------
-------------------
----------4--------
-5--------2--------
-3-----------------X4

----------------------------------
----------------------------------
-------7-------7-------7-------7--
-8-8-8-8-8-8-8-8-7-7-7-7-7-7-7-7--
-6-6-6-6-6-6-6-6-5-5-5-5-5-5-5-5--
----------------------------------X8

-----------------------------------
-----------------------------------
-----------------------------------
-----------------------------------
-5-5-5556555-555-5-5-555-6-44-333--
-3-3-3334333-333-3-3-333-4-22-111--X4

---------------------------
---------------------------
---------------------------
---------------------------
-5----5---6----5----5---8--
-3----3-4-4----3----3-6-6--X2
        pm.           . .

--------------------------------------
--------------------------------------
--------------------------------------
--------------------------------------
-5-5-555-6-66-6666-5-5-555-8-88-8888--
-3-3-333-4-44-4444-3-3-333-6-66-6666--X2

---------------------------
---------------------------
---------------------------
---------------------------
-5----5---6----5----5---8--
-3----3-4-4----3----3-6-6--X2
        pm.           . .

THE END

any comments mail em to: septic_flesh241@hotmail.com

  Visit MetalTabs.com for more metal tablature

bottom separator

Contact Us | Privacy Policy | Disclaimer | Legal Notice
Copyright © 2001-2014 MetalTabs.com. All Rights Reserved.