top separator

Home

Forum

What's New

Submit a Tab

FAQ

Links

Contact Us

Link to Us

MuSpy.com

MetalTabs.com logo

Bands

0-9

A

B

C

D

E

F

G

H

I

J

K

L

M

N

O

P

Q

R

S

T

U

V

W

X

Y

Z

Search

What

Where
 

Ethereal Woods - "Reign Of Terror" Guitar Tab

Plain Text Version
More Ethereal Woods Tabs

Hits: 1656
Updated: 2006-01-20 04:15:21

 

By:

Robbie Filth

sendpm.gif

email.gif

Important note
This tab is available online because we obtained explicit permission from Ethereal Woods or their label.


#----------------------------------PLEASE NOTE---------------------------------#
#This file is the author's own work and represents their interpretation of the #
#song. You may only use this file for private study, scholarship, or research. #
#Unless specified otherwise, this is NOT an official tab from the band members.#
#------------------------------------------------------------------------------#

  Visit MetalTabs.com for more metal tablature
  
Band: Ethereal Woods
Album: Thickthorn
Song: Reign of Terror
Record Label: Supernal Records
Tuning:  E A D G B E (Standard)

----------------------------------
-----0-------0-------0-------0----
----------------------------------
---8---8---8---8---8---8---8---8--
-6-------6-------5-------5--------
----------------------------------X4

-----------------------------------
-----------------------------------
-----------------------------------
-4444444433333333------------------
-22222222111111116666666655555555--
-----------------4444444433333333--X4

----------------------
----------------------
----------------------
----------------------
-2-22-3-33-2-22-6-66--
-0-00-1-11-0-00-4-44--X8

-----------------------------------
-----------------------------------
-----------------------------------
-4444444433333333------------------
-22222222111111116666666655555555--
-----------------4444444433333333--X4

----------------------
----------------------
----------------------
----------------------
-2-22-3-33-2-22-6-66--
-0-00-1-11-0-00-4-44--X8

------------------------------------------------------------------
------------------------------------------------------------------
------------------------------------------------------------------
-2-2-2-2-5-5-5-5-4-4-4-4-5-5-5-5-2-2-2-2-5-5-5-5-4-4-4-4----------
-0-0-0-0-3-3-3-3-2-2-2-2-3-3-3-3-0-0-0-0-3-3-3-3-2-2-2-2-5-5-5-5--
---------------------------------------------------------3-3-3-3--X4

-----------------------------------
-----------------------------------
-----------------------------------
-4444444433333333------------------
-22222222111111116666666655555555--
-----------------4444444433333333--X4

--------------------------------------------------------------------
--------------------------------------------------------------------
--------------------------------------------------------------------
---------7-7-7-7---------9-9-10-10---------7-7-7-7------------------
-7-7-7-7-x-x-x-x-8-8-8-8-x-x--x--x-7-7-7-7-x-x-x-x-8-8-8-8-7-7-7-7--
-5-5-5-5-5-5-5-5-5-5-5-5-5-5--5--5-5-5-5-5-5-5-5-5-5-5-5-5-4-4-4-4--X2

----------
----------
----------
----------
----7-----
----5-----
Let Ring

THE END

any comments mail em to: septic_flesh241@hotmail.com

  Visit MetalTabs.com for more metal tablature

bottom separator

Contact Us | Privacy Policy | Disclaimer | Legal Notice
Copyright © 2001-2014 MetalTabs.com. All Rights Reserved.