top separator

Home

Forum

FAQ

Contact Us

Link to Us

MetalTabs.com logo

Bands

0-9

A

B

C

D

E

F

G

H

I

J

K

L

M

N

O

P

Q

R

S

T

U

V

W

X

Y

Z

Ethereal Woods - "The Eternal Battle" Guitar Tab

Plain Text Version
More Ethereal Woods Tabs

Hits: 1792
Updated: 2006-01-20 04:14:14

By:

Robbie Filth


#----------------------------------PLEASE NOTE---------------------------------#
#This file is the author's own work and represents their interpretation of the #
#song. You may only use this file for private study, scholarship, or research. #
#Unless specified otherwise, this is NOT an official tab from the band members.#
#------------------------------------------------------------------------------#

  Visit MetalTabs.com for more metal tablature
  
Band: Ethereal Woods
Album: Thickthorn
Song: The Eternal Battle
Record Label: Supernal Records
Tuning: E A D G B E (Standard)

------------------------------------------------------------------
-------------------------------------------------------0----------
-------0---------------0---------------0--------------------------
-----2---2-----------5---5-----------4---4-----------5---5--------
---2-------2---2---5-------5---5---4-------4---4---5-------5---5--
-0-----------0---3-----------3---2-----------2---3-----------3----X4


---------------------------------
---------------------------------
---------------------------------
-2--------5--------4--------5----
-2--------5--------4--------5----
-0--------3--------2--------3----X4


--------------------------------------------------------- 
--------------------------------------------------------- 
--------------------------------------------------------- 
-9--9-9-7--7-7-9--9-9-7-9-?--?-?-?-?-?-?----------------- 
-7--7-7-5--5-5-7--7-7-5-7-8--8-8-8-8-8-8-?--?-?-?-?-?-?-- 
-----------------------------------------8--8-8-8-8-8-8-- 
? = 10                                                    X4
                                                          
--------------------------------------------------------- 
--------------------------------------------------------- 
--------------------------------------------------------- 
-9--9-9-7--7-7-9--9-9-7-9-?--?-?-?-?-?-?-9--9-9-9-9-9-9-- 
-7--7-7-5--5-5-7--7-7-5-7-8--8-8-8-8-8-8-8--8-8-8-8-8-8-- 
--------------------------------------------------------- 
? = 10

--------------------------------------
--------------------------------------
--------------------------------------
--------------------------------------
-7-7-7-77-3-3-3-33-3-3-3-33-2-2-2-22--
-5-5-5-55-5-5-5-55-4-4-4-44-4-4-4-44--X8


--------------------------------------------------------- 
--------------------------------------------------------- 
--------------------------------------------------------- 
-9--9-9-7--7-7-9--9-9-7-9-?--?-?-?-?-?-?----------------- 
-7--7-7-5--5-5-7--7-7-5-7-8--8-8-8-8-8-8-?--?-?-?-?-?-?-- 
-----------------------------------------8--8-8-8-8-8-8-- 
? = 10                                                    X4
                                                          
--------------------------------------------------------- 
--------------------------------------------------------- 
--------------------------------------------------------- 
-9--9-9-7--7-7-9--9-9-7-9-?--?-?-?-?-?-?-9--9-9-9-9-9-9-- 
-7--7-7-5--5-5-7--7-7-5-7-8--8-8-8-8-8-8-8--8-8-8-8-8-8-- 
--------------------------------------------------------- 

------------------------------------------------
------------------------------------------------
------------------------------------------------
--------------7-77-9-99--------------7-77-------
-7-77-8-7-5---5-55-7-77-7-77-8-7-5---5-55-8-88--
-5-55-------8-----------5-55-------8------6-66--X4

---------
---------
---------
----7----
----7----
----5----

THE END

any comments mail them to septic_flesh241@hotmail.com

  Visit MetalTabs.com for more metal tablature

bottom separator

Contact Us | Privacy Policy | Disclaimer
Copyright © 2001-2014 MetalTabs.com. All Rights Reserved.