top separator

Home

Forum

What's New

Submit a Tab

FAQ

Links

Contact Us

Link to Us

MetalTabs.com logo

Bands

0-9

A

B

C

D

E

F

G

H

I

J

K

L

M

N

O

P

Q

R

S

T

U

V

W

X

Y

Z

Search

What

Where
 

Akercocke - "Il Giardino Di Monte Oliveto Maggiore" Guitar Tab

Plain Text Version
More Akercocke Tabs

Hits: 2254
Updated: 2006-01-20 03:29:39

 

By:

Robbie Filth

sendpm.gif

email.gif

Important note
This tab is available online because we obtained explicit permission from Akercocke or their label.


#----------------------------------PLEASE NOTE---------------------------------#
#This file is the author's own work and represents their interpretation of the #
#song. You may only use this file for private study, scholarship, or research. #
#Unless specified otherwise, this is NOT an official tab from the band members.#
#------------------------------------------------------------------------------#

  Visit MetalTabs.com for more metal tablature
  
Band: Akercocke
Album: Rape of the Bastard Nazarene
Song: Il Giardino Di Monte Oliveto Maggiore
Record Label: Earache
Tuning: C F A# D# G C

On the CD this is track 9.

-------------------------------------------------------------------------------
-------------------------------------------------------------------------------
-------------------------------------------------------------------------------
-5-5-5-5-5-5-5--------0-0-0-0-0-0-0-----------------------------5-5-5-5-5-5----
-x-x-x-x-x-x-x--------6-6-6-6-6-6-6--------1-1-1-1-1-1-1--------x-x-x-x-x-x-t---
-1-1-1-1-1-1-1-000000---------------000000-2-2-2-2-2-2-2-222222-1-1-1-1-1-1-0--
t = trem.

--------------------------
--------------------------
--------------------------
--------------------------
---3-4---3-4---2-3---2-3--
-1-----1-----0-----0------X2

-------------------------------------------------------------------------------
-------------------------------------------------------------------------------
-------------------------------------------------------------------------------
-5-5-5-5-5-5-5--------0-0-0-0-0-0-0-----------------------------5-5-5-5-5-5----
-x-x-x-x-x-x-x--------6-6-6-6-6-6-6--------1-1-1-1-1-1-1--------x-x-x-x-x-x-t---
-1-1-1-1-1-1-1-000000---------------000000-2-2-2-2-2-2-2-222222-1-1-1-1-1-1-0--
t = trem.

------------------------------------------------------
------------------------------------------------------
------------------------------------------------------
------------------------------------------------------
-3-2----------2-1----------3-2----------2-1-----------
-----2-111111-----1-000000-----2-111111-----1-000000--X2
Trem................................................

----------------------------------
----------------------------------
----------------------------------
----------------------------------
---1-4-------------1-4------------
-0-----3-0-4-6-3-0-----3-0-4-3-1--X2
 trem...........................

-------------------------
-------------------------
-------------------------
-------------------------
-----11-----8-----8-9-8--
-000----000---000--------X4
    trem    .     .....

gtr1
----------------------------------
----------------------------------
----------------------------------
----------------------------------
---1-4-------------1-4------------
-0-----3-0-4-6-3-0-----3-0-4-3-1--X2

gtr2
---------------------------------------
---------------------------------------
-999888888999777777999888888777777/19--
---------------------------------------
---------------------------------------
---------------------------------------

(drums and keyboards and laughing n stuff)

Both guitars.
-------------------------------
-------------------------------
-------------------------------
-pickscrape--------------------
-\\\\\\\\\\--------------------
-\\\\\\\\\\---3-1-2-0-1-0-2-1--X8
only 1st time. trem...........

--------------------------------------------------------------------------------
--------------------------------------------------------------------------------
-------3-6-4-3---------------------------------3-6-4-3--------------------------
-2---2---------3-2---------2-5-3-2-----------2---------3-2---------2-5-3-2------
---1---------------2-1---1---------2-1-----1---------------2-1---1---------2-1--
-----------------------0---------------1-0---------------------0---------------1
 trem...........................................................................


--------------------------------------------------------------------------------
--------------------------------------------------------------------------------
-------6-9-7-6---------------------------------6-9-7-6--------------------------
-5---5---------6-5---------5-8-6-5-----------5---------6-5---------5-8-6-5------
---4---------------5-4---4---------5-4-----4---------------5-4---4---------5-4--
-----------------------3---------------4-3---------------------3---------------4
 trem...........................................................................

-------------------------------------------------
-------------------------------------------------
-------------------------------------------------
-0--0--0--0--0--0--0--0--0--0--0--0--0--0--0--0--
-3--4--5--6--3--4--5--6--7--8--6--7--7--8--6--7--
-1--2--3--4--1--2--3--4--5--6--4--5--5--6--4--5--X2
let all the notes ring.

----------------------------------------------------------
----------------------------------------------------------
----------------------------------------------------------
----------------------------------------------------------
---7---7---7-8---7---7---7-8---7---7---7-8---7---7---7-8--
-0---0---0-----0---0---0-----0---0---0-----0---0---0------
 trem...................................................

----------------------------------------------------------
----------------------------------------------------------
----------------------------------------------------------
----------------------------------------------------------
---4---4---4-5---4---4---4-5---4---4---4-5---4---4---4-5--
-0---0---0-----0---0---0-----0---0---0-----0---0---0------
 trem....................................................
 pm......................................................

----------------------------------------------------------
----------------------------------------------------------
----------------------------------------------------------
----------------------------------------------------------
---7---7---7-8---7---7---7-8---7---7---7-8---7---7---7-8--
-0---0---0-----0---0---0-----0---0---0-----0---0---0------
 trem...................................................

--------------------------------------------------
--------------------------------------------------
--------------------------------------------------
--------------------------------------------------
-2-2-2-3-3-3-6-6-6-7-7-7-2-2-2-3-3-3-6-6-6-7-7-7--
-0-0-0-1-1-1-4-4-4-5-5-5-0-0-0-1-1-1-4-4-4-5-5-5--X2


--------------------------------------------------
--------------------------------------------------
--------------------------------------------------
--------------------------------------------------
--------------------------------------------------
-0-0-0-1-1-1-4-4-4-5-5-5-0-0-0-1-1-1-4-4-4-5-5-5--
 pm.............................................
 trem...........................................


--------------------------------------------------
--------------------------------------------------
--------------------------------------------------
--------------------------------------------------
-2-2-2-3-3-3-6-6-6-7-7-7-2-2-2-3-3-3-6-6-6-7-7-7--
-0-0-0-1-1-1-4-4-4-5-5-5-0-0-0-1-1-1-4-4-4-5-5-5--
 pm..............................................
 trem............................................


----------------------------------------------
----------------------------------------------
----------------------------------------------
----------------------------------------------
-2-2-2-3-3-3-6-6-6-7-7-7-2-2-2-3-3-3-6-6-6-7--
-0-0-0-1-1-1-4-4-4-5-5-5-0-0-0-1-1-1-4-4-4-5--
 trem.....................................

THE END

any corrections mail em to: septic_flesh241@hotmail.com

  Visit MetalTabs.com for more metal tablature

bottom separator

Contact Us | Privacy Policy | Disclaimer | Legal Notice
Copyright © 2001-2014 MetalTabs.com. All Rights Reserved.