#----------------------------------PLEASE NOTE---------------------------------#
#This file is the author's own work and represents their interpretation of the #
#song. You may only use this file for private study, scholarship, or research. #
#Unless specified otherwise, this is NOT an official tab from the band members.#
#------------------------------------------------------------------------------#

  Visit MetalTabs.com for more metal tablature
  
Band: Akercocke
Album: Rape of the Bastard Nazarene
Song: Marguerite & Gretchen
Record Label: Earache
Tuning: C F A# D# G C

Note: On the Cd this is track 5 not 4.

----------------------------------------------------------------------------
----------------------------------------------------------------------------
----------------------------------------------------------------------------
-6-------6-------5--------5------------6-------6-------5--------5----5------
-6-------6-------5--------5------------6-------6-------5--------5------5----
-5-------5-------4--------4---(pause)--5-------5-------4--------4--------4--

------------------------------------------- 
------------------------------------------- 
------------------------------------------- 
---3---3---3-----3------3---3---3-----3---- 
------------------------------------------- 
-2---2---2---2-2---2--2---2---2---2-2---2-- 

                            X4
-----------------------                     
-----------------------                     
-----------------------                     
---3---3------3---3----                     
---------b----------b--                     
-1---1---1--1---1---1--                     
b = bend                                    

-----------------------------
-----------------------------
-----------------------------
---3---3--3------3---3--2----
----------2-------------2----
-2---2----1----1---1----0----X2

---------------------------------------------------
---------------------------------------------------
---------------------------------------------------
-9-----9-----9-9-9-----9-----9-9-10-----7-----9-9--
-7-----7-----7-7-7-----7-----7-7--8-----5-----7-7--
---5-0---5-0-------5-0---5-0--------5-0---5-0------X2
   pm.   . .       . .   . .        . .   . .


---------------------------------------------------
---------------------------------------------------
---------------------------------------------------
-9-----9-----9-9-9-----9-----9-9-10-----7-----9-9--
-7-----7-----7-7-7-----7-----7-7--8-----5-----7-7--
-0-----0-----0-0-0-----0-----0-0--0-----0-----0-0--X2

---------------------------------------------------
---------------------------------------------------
---------------------------------------------------
-9-----9-----9-9-9-----9-----9-9-10-----7-----9-9--
-7-----7-----7-7-7-----7-----7-7--8-----5-----7-7--
---5-0---5-0-------5-0---5-0--------5-0---5-0------X2
   pm.   . .       . .   . .        . .   . .

(Bass Only)

1:53 (Clean)
--------------
--------------
---3---3------
--------------
-1------------
-----2---3-0--X24
pm   .

--------------
--------------
--------------
-3-3----------
-1-1-4-4-5-2--
-----2-2-3-0--X2
 pm. . . . .

--------------
--------------
--------------
-3-3----------
-1-1-4-4-5-2--
-----2-2-3-0--

--------------
--------------
--------------
-3-3----------
-1-1-4-4-5-4--
-----2-2-3-2--

-----------------------------
-----------------------------
-----------------------------
---------2---444---22--------
-------3---3-----3----3-1-3--
-00000-----------------------X4
 trem.......................


---------------------------------------------------
---------------------------------------------------
---------------------------------------------------
-9-----9-----9-9-9-----9-----9-9-10-----7-----9-9--
-7-----7-----7-7-7-----7-----7-7--8-----5-----7-7--
-0-----0-----0-0-0-----0-----0-0--0-----0-----0-0--X2

---------------------------------------------------
---------------------------------------------------
---------------------------------------------------
-9-----9-----9-9-9-----9-----9-9-10-----7-----9-9--
-7-----7-----7-7-7-----7-----7-7--8-----5-----7-7--
---5-0---5-0-------5-0---5-0--------5-0---5-0------X2
   pm.   . .       . .   . .        . .   . .

(Pause and a small drum fill)

------------------------------------------------------------------
------------------------------------------------------------------
------------------------------------------------------------------
------------------------------------------------------------------
---3-1-3---------1-4-3-4-0-3-1-3---2-1-2---------1-4-3-4-0-3-1-3--
-0-------0-4-2-4-----------------0-------0-4-2-4------------------
 trem............................................................

------------------------------------------------
------------------------------------------------
------------------------------------------------
---------2-----------2-----------2--------------
-------2---2-11111-2---2-------2---2-111--------
-00000-------------------00000-----------22-33--X3
 trem.........................................

--------------------------------------------------
--------------------------------------------------
--------------------------------------------------
-3-3-3--------------------------------------------
-1-1-1-4-4-4-5-5-5-5-5-5-6-6-6-3-3-3-2-2-2-2-2-2--
-------2-2-2-3-3-3-3-3-3-4-4-4-1-1-1-0-0-0-0-0-0--X4

--------------------------
--------------------------
--------------------------
--------------------------
-------7-------1-------7--
-00000-0-00000---00000-0--

---------------------------------------
---------------------------------------
---------------------------------------
---------------------------------------
--------------------------------6-5-3--
-0000001133333333--000000113333-4-3-1--

---------------------------------------------------
---------------------------------------------------
---------------------------------------------------
---------------------------------------------------
-2-2-2-3-2-3-5-5-5-5-5-5--2-2-2-3-2-3-5-5-5-6-5-3--
-0-0-0-1-0-1-3-3-3-3-3-3--0-0-0-1-0-1-3-3-3-4-3-1--

---------------------------------------------------
---------------------------------------------------
---------------------------------------------------
---------------------------------------------------
-2-2-2-3-2-3-5-5-5-5-5-5--2-2-2-3-2-3-4-4-4-4-4-4--
-0-0-0-1-0-1-3-3-3-3-3-3--0-0-0-1-0-1-2-2-2-2-2-2--

-----------------------------------
-----------------------------------
-----------------------------------
-----2----------------2------------
---1-------3-1------1-------3-1----
-0-----3-4-----3--0-----3-4-----3--


-----------------------------------
-----------------------------------
-----------------------------------
-----2----------------2------------
---1-------3-1-p----1-------3-1-p--
-0-----3-4-----3--0-----3-4-----3--X12 (Fades out after a while)

(Outro)

THE END

any corrections mail em to: septic_flesh241@hotmail.com

  Visit MetalTabs.com for more metal tablature