top separator

Home

Forum

What's New

Submit a Tab

FAQ

Links

Contact Us

Link to Us

MetalTabs.com logo

Bands

0-9

A

B

C

D

E

F

G

H

I

J

K

L

M

N

O

P

Q

R

S

T

U

V

W

X

Y

Z

Search

What

Where
 

Beherit - "Salomon's Gate" Guitar Tab

Plain Text Version
More Beherit Tabs

Hits: 3661
Rated: 4.00 out of 5 (2 votes)
Updated: 2006-01-20 03:25:52

 

By:

nyanchuk

sendpm.gif

email.gif

Important note
We did our best to reach Beherit and ask for their permission to publish this tab. Unfortunately they did not respond to our requests or we could not find a way to contact them. This tab is available online until Beherit tells us to take it down.


#----------------------------------PLEASE NOTE---------------------------------#
#This file is the author's own work and represents their interpretation of the #
#song. You may only use this file for private study, scholarship, or research. #
#Unless specified otherwise, this is NOT an official tab from the band members.#
#------------------------------------------------------------------------------#

  Visit MetalTabs.com for more metal tablature
  
Band:  Beherit
Album: Drawing Down The Moon
Song:  Salomon's Gate

Copyright (c)  Spinefarm (1993)

Transcribed By: N. Yanchuk
Email:          uklearpower@hotmail.com


E Tuning

Riff A:                       play x4
|----------------------------------|
|-22223333222233332222333322225555-|
|-22223333222233332222333322225555-|
|-00001111000011110000111100003333-|

Riff A: play x2 (single guitar only)
Riff A: play x12

End on:
|---|
|-2-|
|-2-|
|-0-|

Riff B:                     play x2 (single guitar only)
|-----------------------------------------------|
|-6----6-6h7p6-6~----6-6h7p6-6~---6-\--4---4----|
|-----------------------------------------------|
|-----------------------------------------------|

Riff B: play x4

Riff C:                             play x8
|----------------------------------------|
|-4----4/5-4-----4/5-4------4/5-2---2----|
|-4----4/5-4-----4/5-4------4/5-2---2----|
|-2----2/3-2-----2/3-2------2/3-0---0----|

Riff D:         play x2 (single guitar only)
|-4---/7-----4/5-4\3-|
|-4---/7-----4/5-4\3-|
|-2---/5-----2/3-2\1-|
|--------------------|

Riff D: play x4

Riff E:                      play x2 (single guitar only)
|-4-4-4-4-7-7-7-7-4-4-4-4-5-5-5-5-|
|-4-4-4-4-7-7-7-7-4-4-4-4-5-5-5-5-|
|-2-2-2-2-5-5-5-5-2-2-2-2-3-3-3-3-|
|---------------------------------|

Riff E: play x2
Riff D: play x2 (single guitar only)
Riff D: play x6
Riff D: fadeout over x2.5

  Visit MetalTabs.com for more metal tablature

bottom separator

Contact Us | Privacy Policy | Disclaimer | Legal Notice
Copyright © 2001-2014 MetalTabs.com. All Rights Reserved.