top separator

Home

Forum

What's New

Submit a Tab

FAQ

Links

Contact Us

Link to Us

MetalTabs.com logo

Bands

0-9

A

B

C

D

E

F

G

H

I

J

K

L

M

N

O

P

Q

R

S

T

U

V

W

X

Y

Z

Search

What

Where
 

Atrophia Red Sun - "Structure Of Emptiness" Guitar Tab

Plain Text Version
More Atrophia Red Sun Tabs

Hits: 2061
Rated: 5.00 out of 5 (1 vote)
Updated: 2006-01-20 03:25:47

 

By:

Robbie Filth

sendpm.gif

email.gif

Important note
This tab is available online because we obtained explicit permission from Atrophia Red Sun or their label.


#----------------------------------PLEASE NOTE---------------------------------#
#This file is the author's own work and represents their interpretation of the #
#song. You may only use this file for private study, scholarship, or research. #
#Unless specified otherwise, this is NOT an official tab from the band members.#
#------------------------------------------------------------------------------#

  Visit MetalTabs.com for more metal tablature
  
Band: Atrophia Red Sun
Album: Twisted Logic
Song: Structure Of Emptiness
Record Label: Empire Records
Tuning: C G C F A D

------------------------------------------
------------------------------------------
------------------------------------------
------------------------------------------
-1-2-1-2-1-1-2-0-2-5-1-2-1-2-1-1-2-1-2-0--
-1-2-1-2-1-1-2-0-2-5-1-2-1-2-1-1-2-1-2-0--X6
               pm.                 . .
------------------------------------------------
------------------------------------------------
------------------------------------------------
------------------------------------------------
-7-0-3-1-2-7-0-3-1-2-1-7-0-3-1-2-7-0-3-0-1-5-4--
-------1-2-------1-2-1-------1-2-------0-1-5-4--X4
       . .       . . .       . .       . . . .

------------------------------------------------------------------
------------------------------------------------------------------
------------------------------------------------------------------
-------------------------4-5-6------------------------------------
-020-4-020-4-4-020-4-020-3-4-5-020-4-020-4-4-020-4-020-3---5---2--
-020-4-020-4-4-020-4-020-------020-4-020-4-4-020-4-020---0---0----X2
 pm.   ...     ...   ...       ...   ...     ...   ...   .   .

----------------------------------------------------------
----------------------------------------------------------
----------------------------------------------------------
-5--------------------------------------------------------
---3-6---4-5-7-8-7-5-4-1-4-1-3-4-5-3-4-5-6-4-5-4-3-4-3-2--
-------4-4-5-7-8-7-5-4-1-4-1---4-5---4-5---4-5-4-3-4-3-2--X2
         pm. . . . .  .        . .   . .   . . . . . .

------------------------------------------------------------------
------------------------------------------------------------------
------------------------------------------------------------------
-------------------------4-5-6------------------------------------
-020-4-020-4-4-020-4-020-3-4-5-020-4-020-4-4-020-4-020-3---5---2--
-020-4-020-4-4-020-4-020-------020-4-020-4-4-020-4-020---0---0----X2
 pm.   ...     ...   ...       ...   ...     ...   ...   .   .

----------------------------------------------------------
----------------------------------------------------------
----------------------------------------------------------
-5--------------------------------------------------------
---3-6---4-5-7-8-7-5-4-1-4-1-3-4-5-3-4-5-6-4-5-4-3-4-3-2--
-------4-4-5-7-8-7-5-4-1-4-1---4-5---4-5---4-5-4-3-4-3-2--X2
         pm. . . . .  .        . .   . .   . . . . . .

------------------------------------------------
------------------------------------------------
------------------------------------------------
------------------------------------------------
-7-0-3-1-2-7-0-3-1-2-1-7-0-3-1-2-7-0-3-0-1-5-4--
-------1-2-------1-2-1-------1-2-------0-1-5-4--X4
       . .       . . .       . .       . . . .

----------------------------------------------------------
----------------------------------------------------------
----------------------------------------------------------
----7---8----4---5---5/6/7-----7---8----4---5----5/7------
-00-5-0-6-00-2-0-3-0-3/4/5--00-5-0-6-00-2-0-3-00-3/5-3-5--
-00---0---00---0---0--------00---0---00---0---00-----3-5--X4
 pm   .   ..   .   .        ..   .   ..   .   ..     . .

------------------------
------------------------
------------------------
-5-------5-------5------
-3-4-5---3-4-5---3-4-5--
---4-5-----4-5-----4-5--X7

------------------------
------------------------
------------------------
-5-------5-------8------
-3-4-5---3-4-5---6-7-8--
---4-5-----4-5-----7-8--

------------------------------------------------
------------------------------------------------
------------------------------------------------
-5----8----5------------5----8----5----------4--
-3----6----3----6--8----3----6----3----6--8--5--
----------------6--8-------------------6--8-----

--------------------------------
---------6----------------------
-----4-----4---4---5-4----------
-0-3---3-----3---3-----3-0-3-0--
--------------------------------
--------------------------------X2

--------------------------------
---------9----------------------
-----7-----7---7---8-7----------
---6---6-----6---6-----6---6----
-8-----------------------8---8--
--------------------------------

----------------------------
---------9------------------
-----7-----7---7---8-7------
---6---6-----6---6-----6----
-8-----------------------8--
----------------------------

--------------------------------------------------
--------------------------------------------------
--------------------------------------------------
--------------------------------------------------
-5-555-5-55-5-5-5-55-555-5-555-5-55-5-5-5-55-555--
-0-000-0-00-0-0-0-00-000-0-000-0-00-0-0-0-00-000--
   pm.   ..   .      ...   ...   ..   .      ...

--------------------------------------------------
--------------------------------------------------
--------------------------------------------------
--------------------------------------------------
-8-888-8-88-8-8-8-88-888-8-888-8-88-8-8-8-88-888--
-0-000-0-00-0-0-0-00-000-0-000-0-00-0-0-0-00-000--
   pm.   ..   .      ...   ...   ..   .      ...

--------------------------------
--------------------------------
--------------------------------
---------3----------------------
-----2-----2---2---3-2----------
-0-3---3-----3---3-----3-0-3-0--X7

----------------------------
----------------------------
----------------------------
---------3------------------
-----2-----2---2---3-2------
-0-3---3-----3---3-----3-0--

------------------------------------------
------------------------------------------
------------------------------------------
------------------------------------------
-1-2-1-2-1-1-2-0-2-5-1-2-1-2-1-1-2-1-2-0--
-1-2-1-2-1-1-2-0-2-5-1-2-1-2-1-1-2-1-2-0--X2
               pm.                 . .

------------------------------------------------
------------------------------------------------
------------------------------------------------
------------------------------------------------
-7-0-3-1-2-7-0-3-1-2-1-7-0-3-1-2-7-0-3-0-1-5-4--
-------1-2-------1-2-1-------1-2-------0-1-5-4--X2
       . .       . . .       . .       . . . .

------------------------------------------------------------------
------------------------------------------------------------------
------------------------------------------------------------------
-------------------------4-5-6------------------------------------
-020-4-020-4-4-020-4-020-3-4-5-020-4-020-4-4-020-4-020-3---5---2--
-020-4-020-4-4-020-4-020-------020-4-020-4-4-020-4-020---0---0----X2
 pm.   ...     ...   ...       ...   ...     ...   ...   .   .

----------------------------------------------------------
----------------------------------------------------------
----------------------------------------------------------
-5--------------------------------------------------------
---3-6---4-5-7-8-7-5-4-1-4-1-3-4-5-3-4-5-6-4-5-4-3-4-3-2--
-------4-4-5-7-8-7-5-4-1-4-1---4-5---4-5---4-5-4-3-4-3-2--X2
         pm. . . . .  .        . .   . .   . . . . . .

------------------------------------------------
------------------------------------------------
------------------------------------------------
------------------------------------------------
-7-0-3-1-2-7-0-3-1-2-1-7-0-3-1-2-7-0-3-0-1-5-4--
-------1-2-------1-2-1-------1-2-------0-1-5-4--X2
       . .       . . .       . .       . . . .

----------------------------------------------------------
----------------------------------------------------------
----------------------------------------------------------
----7---8----4---5---5/6/7-----7---8----4---5----5/7------
-00-5-0-6-00-2-0-3-0-3/4/5--00-5-0-6-00-2-0-3-00-3/5-3-5--
-00---0---00---0---0--------00---0---00---0---00-----3-5--X4
 pm   .   ..   .   .        ..   .   ..   .   ..     . .

-------------------------------------------------------------------
-------------------------------------------------------------------
-------------------------------------------------------------------
-10----------------------------------------------------------------
----8-11---9-10-12-13-12-10-9-6-9-6-8------8------11-9-10-9-8-9-8--
---------9-9-10-12-13-12-10-9-6-9-6---9-10---9-10----9-10-9-8-9-8--
           pm.. .. .. .. ..   .       . ..   . ..    . .. . . . .

------------------------------------------------------------------
------------------------------------------------------------------
------------------------------------------------------------------
---7---------------------------------------------6---8---9---8----
-7---5-8--------7--------5-----------------6----------------------
-7-------7-9-10---10-9-7---10-9-10-9-6-6-9---6-9---6---6---6---6--
          pm ..   .. . .   .. . .. .   . .   . .   .   .   .   .

--------------------
--------------------
--------------------
--------------------
-----6-------5-4-2--
-6-6---9-8-9-5-4-2-- continued from above.
 . .   . . .

----------------
----------------
----------------
-------7--------
-2--5--5--7--8--
-2--5-----7--8--X7

----------------
----------------
----------------
-------7--------
-2--5--5--7--8--
-2--5-----7--8--
 dont let the notes ring.

(Clean)
----------------
----------------
----------------
----------------
-------5--------
-2--5-----7--8--X13

THE END

Any comments mail em to: septic_flesh241@hotmail.com.

  Visit MetalTabs.com for more metal tablature

bottom separator

Contact Us | Privacy Policy | Disclaimer | Legal Notice
Copyright © 2001-2014 MetalTabs.com. All Rights Reserved.