top separator

Home

Forum

What's New

Submit a Tab

FAQ

Links

Contact Us

Link to Us

MetalTabs.com logo

Bands

0-9

A

B

C

D

E

F

G

H

I

J

K

L

M

N

O

P

Q

R

S

T

U

V

W

X

Y

Z

Search

What

Where
 

Soulfly - "Defeat U" Guitar Tab

Plain Text Version
More Soulfly Tabs

Hits: 5637
Rated: 3.67 out of 5 (6 votes)
Updated: 2006-01-20 03:25:38

 

By:

sendpm.gif

email.gif

Important note
This tab is available online because we obtained explicit permission from Soulfly or their label.


#----------------------------------PLEASE NOTE---------------------------------#
#This file is the author's own work and represents their interpretation of the #
#song. You may only use this file for private study, scholarship, or research. #
#Unless specified otherwise, this is NOT an official tab from the band members.#
#------------------------------------------------------------------------------#

  Visit MetalTabs.com for more metal tablature
  
Band:  Soulfly
Album: Prophecy
Song:  Defeat U

Copyright (c)  (Roadrunner Records) (2004)
Version 1.0 - (12.1.2006)

Transcribed By: Schizophrenic
Email:          zoran.pervan@tel.net.ba


.  - palm mute           /  - slide up to
\  - slide down to       ~  - vibrato
h  - hammer on           b  - Bend
p  - pull off            Suffixes for bend
t  - tap                 f  - full bend    h - half bend
ph - pinched harmonic    q  - quarter bend t - tap bend
*  - see comment         ^  - Hold bend    r release bend
x  - Stuccatto           ~  - vibrato bend
,  - slight palm mute    () - ghost note, sustained note
"  - tremolo note        <> - Trill

Tuning dropped B    B F# B E G# C#

 Intro
|---------------------------------------------------|
|---------------------------------------------------|
|---------------------------------------------------|
|---------------------------------------------------|
|---------------------------------------------------|
|-0-0-0-0-0-0-0-0-0-0-0-0-0-0-0-0-0-0-0-0-0-0-0-0---|
  . . . . . . . . . . . . . . . . . . . . . . . .

|--------------------------------|
|--------------------------------|
|--------------------------------|
|-----------------5---8---5---7--|
|-----------------3---6---3---5--|
|-0-0-0-0-0-0-0-0---0---0---0----| x4
  . . . . . . . .   .   .   .

|---------------------|
|---------------------|
|---------------------|
|---------------------|
|--5555555544443333---|
|---------------------| x2

 Chours
|------------------------|
|------------------------|
|------------------------|
|----7---7-----5-8-5-----|
|----5---5-----3-6-3-----|
|------------------------| x4

 Solo riff (sorry, but no solo)
|------------------|
|------------------|
|------------------|
|------------------|
|--------------9---|
|--0-0---0--0------| x7

 And the eight time you go
|-------------------------|
|-------------------------|
|-------------------------|
|-------------------------|
|---------------0--0--0---|
|--0-0---0--0---0--0--0---|

|-----------------------------|
|-----------------------------|
|-----------------------------|
|-----------------------------|
|-------5-----6-----8-----9---|
|---0-0---0-0---0-0---0-0-----| x4
    . .   . .   . .   . .
|---------------------------------------------------|
|---------------------------------------------------|
|---------------------------------------------------|
|---------------------------------------------------|
|-------5-----5-----5-----5-----5-----5-----5-5-5---|
|---0-0---0-0---0-0---0-0---0-0---0-0---0-0---------| x2
    . .   . .   . .   . .   . .   . .   . .
 That's it, just listen to the song and figure out the parts!
END

  Visit MetalTabs.com for more metal tablature

bottom separator

Contact Us | Privacy Policy | Disclaimer | Legal Notice
Copyright © 2001-2014 MetalTabs.com. All Rights Reserved.