top separator

Home

Forum

What's New

Submit a Tab

FAQ

Links

Contact Us

Link to Us

MetalTabs.com logo

Bands

0-9

A

B

C

D

E

F

G

H

I

J

K

L

M

N

O

P

Q

R

S

T

U

V

W

X

Y

Z

Search

What

Where
 

Lacrimas Profundere - "Reminiscence" Bass Tab

Plain Text Version
More Lacrimas Profundere Tabs

Hits: 2565
Rated: 5.00 out of 5 (1 vote)
Updated: 2006-01-20 03:23:24

 

By:

GeCkO

sendpm.gif

email.gif

Important note
This tab is available online because we obtained explicit permission from Lacrimas Profundere or their label.


#----------------------------------PLEASE NOTE---------------------------------#
#This file is the author's own work and represents their interpretation of the #
#song. You may only use this file for private study, scholarship, or research. #
#Unless specified otherwise, this is NOT an official tab from the band members.#
#------------------------------------------------------------------------------#

  Visit MetalTabs.com for more metal tablature
  
Band: Lacrimas profundere
Song: Reminiscence
Album: Memorandum (1999)
Tabbed by: Gecko ( gecko@osopanda.com )
5 string bass standard tunning (BEADG)

Verse
G|----------------||-----||
D|----------------||-----||
A|----------------||-----||
E|------3--0--5---||-----||
B|--5*------------||--5*-||

Pre-Chorus
G|----------------||-----||
D|----------------||-----||
A|----------------||-----||
E|--2*--1-2--x--x-||--2*-||
B|----------------||-----||

Chorus
G|-------------------------------------------------6-7-6-5--------||
D|---------------------------------------------------------7-5----||
A|------------------------45--------------7777777-----------------||
E|--5555555555535555555555---555555555555-------------------------||
B|----------------------------------------------------------------||

G|---------------------------------------------------------||
D|---------------------------------------------------------||
A|---------------------------------------------------------||
E|---------------------------------------------------------||
B|--777777777776-777777777777-777777777776-777777777777----||

Structure:
Intro(sec. 14)
Verse: x5
Pre-Chorus:  x2
Chorus:      x2
REST (Piano)
Pre-Chorus:  x4
Chorus:      x3
Outro(Piano)

  Visit MetalTabs.com for more metal tablature

bottom separator

Contact Us | Privacy Policy | Disclaimer | Legal Notice
Copyright © 2001-2014 MetalTabs.com. All Rights Reserved.