top separator

Home

Forum

What's New

Submit a Tab

FAQ

Links

Contact Us

Link to Us

MuSpy.com

MetalTabs.com logo

Bands

0-9

A

B

C

D

E

F

G

H

I

J

K

L

M

N

O

P

Q

R

S

T

U

V

W

X

Y

Z

Search

What

Where
 

Akercocke - "Eyes of the Dawn" Guitar Tab

Plain Text Version
More Akercocke Tabs

Hits: 2934
Rated: 4.50 out of 5 (2 votes)
Updated: 2006-01-20 03:23:06

 

By:

Robbie Filth

sendpm.gif

email.gif

Important note
This tab is available online because we obtained explicit permission from Akercocke or their label.


#----------------------------------PLEASE NOTE---------------------------------#
#This file is the author's own work and represents their interpretation of the #
#song. You may only use this file for private study, scholarship, or research. #
#Unless specified otherwise, this is NOT an official tab from the band members.#
#------------------------------------------------------------------------------#

  Visit MetalTabs.com for more metal tablature
  
Band: Akercocke
Album: Words That Go Unspoken, Deeds That Go Undone
Song: Eyes of the Dawn
Record Label: Earache
Tuning: C F A# D# G C

--------------------------------------------------------------
--------------------------------------------------------------
--------------------------------------------------------------
-----------------9-8-----------------8-9-----------------8-9--
-----------------6-7-----------------6-7-----------------6-7--
-0000000044443333----0000000044443333----0000000077777777-----
 pm..............    ................    ................
--------------------------------------------
--------------------------------------------
--------------------------------------------
-----------------8-9----------66665555-8-9--
-----------------6-7-------------------6-7--
-0000000077777777-----00000000-------------- Continued from above.
 ................     ................

-----------------------------------------------------------------
-----------------------------------------------------------------
-----------------------------------------------------------------
-----------------------------------------------------------------
--------7-8-10-------7-8-11-------7-8-11-----10-----8-----3-2-3--
-000000--------00000--------00000--------000----000---000-1-0-1--X3
 pm.... . . .. ..... . . .. ..... . . .. ... .. ... . ... . . .

---------------------------------------------------------
---------------------------------------------------------
---------------------------------------------------------
--------------------------------------10-9---------------
---------------------------------------8-7---------------
-000000-1-0-1-0-0000-43104310-0000000------000-43104310--X2
 pm.... . . . . .... ........ .......      ... ........


-------------------------------------------------------
-------------------------------------------------------
-------------------------------------------------------
--------------------------------------10-9----------8--
---------------------------------------8-7----------6--
-000000-1-0-1-0-0000-43104310-0000000------000-4310----
 pm.... . . . . .... ........ .......      ... ....

------------------------------------------------------------------
------------------------------------------------------------------
------------------------------------------------------------------
------------------------------------------------------------------
-7-6-----7-6-----7-6-----8-7-----7-6-----7-6-----7-6-----6-5------
-----5-4-----5-4-----5-4-----6-5-----5-4-----5-4-----5-4-----4-3--
 pm. . . . . . . . . . . . . . . . . . . . . . . . . . . . . . .
-------------------------------------------------------------------
-------------------------------------------------------------------
------------------------------------------------------6-9-----6-9--
------------------------------------------5-8-----5-8-----5-8------
-7-6-----7-6-----7-6-----8-7----------4-7-----4-7------------------
-----5-4-----5-4-----5-4-----6-5--3-6------------------------------
 . . . . . . . . . . . . . . . .

------------------------------------------------------------------
------------------------------------------------------------------
------------------------------------------------------------------
------------------------------------------------------------------
-7-6-----7-6-----7-6-----8-7-----7-6-----7-6-----7-6-----6-5------
-----5-4-----5-4-----5-4-----6-5-----5-4-----5-4-----5-4-----4-3--
 pm. . . . . . . . . . . . . . . . . . . . . . . . . . . . . . .

-------------------------------------------------------9-12------9-12--
-----------------------------------------8-11-----8-11------8-11-------
-------------------------------------6-9------6-9----------------------
---------------------------------5-8-----------------------------------
-7-6-----7-6-----7-6-----8-7-------------------------------------------
-----5-4-----5-4-----5-4-----6-5---------------------------------------
 . . . . . . . . . . . . . . . .

-----------------------------------
-----------------------------------
-----------------------------------
-----------------------------------
-ttttttttfffffffftttttttt00000000--
-00000000000000000000000044444444--X2
t = 12th fret.
f = 15th fret.

(Clean)
--------------------------------------------------
---------------------------------------0----------
-----0---------0---------0-----------0---0---0----
---3---3-----4---4-----6---6-------6-------6---6--
--------------------------------------------------
-1-------1-2-------2-4-------4-4-4----------------X2

----------------------------------------------------------------
----------------------------------------------------------------
----------------------------------------------------------------
-8--7-----------11--10-----------8--7------------3--6-----------
----------------------------------------------------------------
----------------------------------------------------------------

---------------------------------------------------------------
---------------------------------------------------------------
---------------------------------------------------------------
------13-4------13-4------13-4------13-4-------13-4------13-4--
---------------------------------------------------------------
-12-4------12-4------12-4------12-4------12-4-------12-4-------X10
 T    T    T    T    T    T    T    T    T     T    T    T
T = tap.

--------------------------------------------
--------------------------------------------
--------------------------------------------
--------------------------------------------
-6-------------7------------10--------------
-4-------------5-------------8--------------X2


---------------------------------------------------------------
---------------------------------------------------------------
---------------------------------------------------------------
------13-4------13-4------13-4------13-4-------13-4------13-4--
---------------------------------------------------------------
-12-4------12-4------12-4------12-4------12-4-------12-4-------X10
 T    T    T    T    T    T    T    T    T     T    T    T
T = tap.

---------
---------
---------
---------
----6----
----4----Let ring.

THE END

Any corrections mail em to: septic_flesh241@hotmail.com

  Visit MetalTabs.com for more metal tablature

bottom separator

Contact Us | Privacy Policy | Disclaimer | Legal Notice
Copyright © 2001-2014 MetalTabs.com. All Rights Reserved.