top separator

Home

Forum

What's New

Submit a Tab

FAQ

Links

Contact Us

Link to Us

MuSpy.com

MetalTabs.com logo

Bands

0-9

A

B

C

D

E

F

G

H

I

J

K

L

M

N

O

P

Q

R

S

T

U

V

W

X

Y

Z

Search

What

Where
 

Sodom - "Sodomy And Lust" Guitar Tab

Plain Text Version
More Sodom Tabs

Hits: 3699
Rated: 4.25 out of 5 (4 votes)
Updated: 2006-01-20 03:22:59

 

By:

sendpm.gif

email.gif

Important note
This tab is available online because we obtained explicit permission from Sodom or their label.


#----------------------------------PLEASE NOTE---------------------------------#
#This file is the author's own work and represents their interpretation of the #
#song. You may only use this file for private study, scholarship, or research. #
#Unless specified otherwise, this is NOT an official tab from the band members.#
#------------------------------------------------------------------------------#

  Visit MetalTabs.com for more metal tablature
  
Band:  (SODOM)
Album: (Persecution Mania)
Song:  (Sodomy and Lust)

Copyright (c)  (Steamhammer/SPV) (1987)
Version 1.0 - (January 11, 2006)

Transcribed By: (Fornicator)
Email:          (deicide_fan@hotmail.com)


.  - palm mute           /  - slide up to
\  - slide down to       ~  - vibrato
h  - hammer on           b  - Bend
p  - pull off            Suffixes for bend
t  - tap                 f  - full bend    h - half bend
ph - pinched harmonic    q  - quarter bend t - tap bend
*  - see comment         ^  - Hold bend    r release bend
x  - Stuccatto           ~  - vibrato bend
,  - slight palm mute    () - ghost note, sustained note
"  - tremolo note        <> - Trill

Tuning E A D G B E


 RIFF A:
|------------------------------------------------------------------------|
|------------------------------------------------------------------------|
|------------------------------------------------------------------------|
|------------------------------------------------------------------------|
|-------8--------8--------9--------9--------8--------8--------9--------9-|
|-6666--6--6666--6--6666--6--6666--6--6666--6--6666--6--6666--6--6666--6-|
  ....     ....     ....     ....     ....     ....     ....     ....
|------------------------------------------------------------------------|
|------------------------------------------------------------------------|
|------------------------------------------------------------------------|
|------------------------------------------------------------------------|
|-------7--------7--------6--------6--------7--------7--------6--------6-|
|-4444--4--4444--4--4444--4--4444--4--4444--4--4444--4--4444--4--4444--4-|
  ....     ....     ....     ....     ....     ....     ....     ....


 FILL 1:
|--------|
|--------|
|--------|
|--------|
|--------|
|--000---|


 RIFF B1:
|-------------------------------------------------------------------|
|-------------------------------------------------------------------|
|-------------------------------------------------------------------|
|-------------------------------------------------------------------|
|-----------------3"-----2"-----------------------------------------|
|--1"-----0"--2"----------------------------------------------------|

 RIFF B2:
|-------------------------------------------------------------------|
|-------------------------------------------------------------------|
|-------------------------------------------------------------------|
|-----------------5-------------------------------------------------|
|-----------------3-------------------------------------------------|
|--1"-----0"--2"----------------------------------------------------|


 RIFF C:
|-------------------------------------------------------------------|
|-------------------------------------------------------------------|
|-------------------------------------------------------------------|
|--------9--------9--------10-------10-------7----------------------|
|--------7--------7--------8--------8--------5----------------------|
|--0--0-----0--0-----0--0-----0--0-----0--0-------------------------|
   .  .     .  .     .  .     .  .     .  .
|-------------------------------------------------------------------|
|-------------------------------------------------------------------|
|-------------------------------------------------------------------|
|--------9--------9-------------------------------------------------|
|--------7--------7--------------------2--3--2----------------------|
|--0--0-----0--0-----0--0--0--1--2--3-------------------------------|
   .  .     .  .     .  .  .  .  .  .  .  .

 RIFF D1:
|-------------------------------------------------------------------|
|-------------------------------------------------------------------|
|-------------------------------------------------------------------|
|--3--------2-------------------------------------------------------|
|--1--------0--------5----------------------------------------------|
|-----0--0-----0--0--3---0-0-0-0-0-0-0-0----------------------------|
      .  .     .  .      . . . . . . . .

 RIFF D2:
|-------------------------------------------------------------------|
|-------------------------------------------------------------------|
|-------------------------------------------------------------------|
|--3--------2-------------------------------------------------------|
|--1--------0--------5---2------------------------------------------|
|-----0--0-----0--0--3---0------------------------------------------|
      .  .     .  .


 RIFF E:
|--------|
|--------|
|--------|
|--------|
|---2----|
|---0----|


 ENDING RIFF:
|-------------------------------|
|-------------------------------|
|-------------------------------|
|-------------------------------|
|----2"-------2--2-----2--2-----|
|----0"-------0--0-----0--0-----|


STRUCTURE:


(RIFF A)   x5
(FILL 1)   x1
(RIFF B1)  x3
(RIFF B2)  x1
(RIFF A)   x4
(FILL 1)   x1
(RIFF B1)  x3
(RIFF B2)  x1
(RIFF C)   x6
(RIFF D1)  x3
(RIFF D2)  x1
(RIFF E)   x7
(RIFF A)   x2

UNDER SOLO:
(RIFF A)   x2
(FILL 1)   x1
(RIFF B1)  x4

(RIFF A)   x4
(FILL 1)   x1
(RIFF B1)  x3
(RIFF B2)  x1

(ENDING RIFF)

  Visit MetalTabs.com for more metal tablature

bottom separator

Contact Us | Privacy Policy | Disclaimer | Legal Notice
Copyright © 2001-2014 MetalTabs.com. All Rights Reserved.