top separator

Home

Forum

What's New

Submit a Tab

FAQ

Links

Contact Us

Link to Us

MuSpy.com

MetalTabs.com logo

Bands

0-9

A

B

C

D

E

F

G

H

I

J

K

L

M

N

O

P

Q

R

S

T

U

V

W

X

Y

Z

Search

What

Where
 

Akercocke - "Words That Go Unspoken (Part 1)" Guitar Tab

Plain Text Version
More Akercocke Tabs

Hits: 3095
Rated: 5.00 out of 5 (2 votes)
Updated: 2006-01-20 03:16:10

 

By:

Robbie Filth

sendpm.gif

email.gif

Important note
This tab is available online because we obtained explicit permission from Akercocke or their label.


#----------------------------------PLEASE NOTE---------------------------------#
#This file is the author's own work and represents their interpretation of the #
#song. You may only use this file for private study, scholarship, or research. #
#Unless specified otherwise, this is NOT an official tab from the band members.#
#------------------------------------------------------------------------------#

  Visit MetalTabs.com for more metal tablature
  
Band: Akercocke
Album: Words That Go Unspoken, Deeds That Go Undone
Song: Words That Go Unspoken (Part 1)
Record Label: Earache
Tuning: C F A# D# G C

----------------------------------------------------------
----------------------------------------------------------
----------------------------------------------------------
-7---6---9-----7---6---9-----7---6---9-----7---6---9------
---7---7---7-7---7---7---7-7---7---7---7-7---7---7---7-7--
----------------------------------------------------------
pm . . . . . . . . . . . . . . . . . . . . . . . . . . .

---------------------------------------------------------------------
---------------------------------------------------------------------
---------------------------------------------------------------------
-9---7---10------9---7---10------9---7---10------12-10-9-------------
---8---8----8-8----8---8----8-8----8---8----8-8----------12-11-8-----
-----------------------------------------------------------------12--
pm . . . .. . .  . . . . .. . .  . . . . .. . .  .. .. . .. .. . ..

----------------------------------------------------------
----------------------------------------------------------
----------------------------------------------------------
-7---6---9-----7---6---9-----7---6---9-----7---6---9------
---7---7---7-7---7---7---7-7---7---7---7-7---7---7---7-7--
----------------------------------------------------------
  pm   .   . . . . . . P . . . . . . . . . . . . . P . .
P= Pinch Harmonic

---------------------------------------------------------------------
---------------------------------------------------------------------
---------------------------------------------------------------------
-9---7---10------9---7---10------9---7---10------12-10-9-------------
---8---8----8-8----8---8----8-8----8---8----8-8----------12-11-8-----
-----------------------------------------------------------------12--
   pm  .    . .  . . . . .. . .  . . . . .. . .  .. .. . .. .. . ..

---------------------------------------------
---------------------------------------------
---------------------------------------------
-----8-7--------8-7--------8-7--------8-7----
-2-3-6-5-3--2-3-6-5-3--2-3-6-5-3--2-3-6-5-3--
-0-1-----1--0-1-----1--0-1-----1--0-1-----1--
 pm. . . .  . . . . .  . . . . .  . . . . .

----------------------------------
----------------------------------
-----n-------n-------n-------n----
-----5-------5-------5-------5----
-2-3---3-2-3---3-2-3---3-2-3---3--
-0-1---1-0-1---1-0-1---1-0-1---1--
 n = natural harmonic

----------------------------------------------------------
----------------------------------------------------------
----------------------------------------------------------
-7---6---9-----7---6---9-----7---6---9-----7---6---9------
---7---7---7-7---7---7---7-7---7---7---7-7---7---7---7-7--
----------------------------------------------------------
  pm   .   . . . . . . P . . . . . . . . . . . . . . . .
P= Pinch Harmonic

---------------------------------------------------------------------
---------------------------------------------------------------------
---------------------------------------------------------------------
-9---7---10------9---7---10------9---7---10------12-10-9-------------
---8---8----8-8----8---8----8-8----8---8----8-8----------12-11-8-----
-----------------------------------------------------------------12--
 pm. . . .. . .  . . . . .. . .    .   .    . .

----------------------------------------------------------
----------------------------------------------------------
----------------------------------------------------------
-7---6---9-----7---6---9-----7---6---9-----7---6---9------
---7---7---7-7---7---7---7-7---7---7---7-7---7---7---7-7--
----------------------------------------------------------
  pm   .   . . . . . . P . . . . . . . . . . . . . . . .
P= Pinch Harmonic

---------------------------------------------------------------------
---------------------------------------------------------------------
---------------------------------------------------------------------
-9---7---10------9---7---10------9---7---10------12-10-9-------------
---8---8----8-8----8---8----8-8----8---8----8-8----------12-11-8-----
-----------------------------------------------------------------12--
 pm. . . .. . .  . . . . .. . .  . . . . .. . .

--------------------------------------------------------------------
-----0----------------0--------------0----------------0-------------
-------2-----b----------2--------------2-----b----------2-----b-----
-2-------2-5-4------2-----2-5------2-----2-5-4------2-----2-5-4--2--
-0---------3-2------0-------3------0-------3-2------0-------3-2--0--
-0------------------0--------------0----------------0---------------
b = Bend                                                         let ring

---------------------------------------
---------------------------------------
---------------b------------------b----
-2-------------9----2-------------9----
-0--------8---------0--------8---------
---------------------------------------X2

1:37 starts fading in.
----------------------------------------------------------------------
----------------------------------------------------------------------
----------------------------------------------------------------------
-----7---9-7---7------7---9-7---7------7---9-7---7------7---9-10-9-7--
-0-0---0-----7----0-0---0-----7----0-0---0-----7----0-0---0-----------
----------------------------------------------------------------------X4

-------------------------------------------------------------------
-------------------------------------------------------------------
-------------------------------------------------------------------
-----7---9-7---7-----7---9-10-9-7-----3---5-3---3-----2---3-2-0-2--
-0-0---0-----7---0-0---0----------0-0---0-----3---0-0---0----------
-------------------------------------------------------------------X4

(Pause)

-------------------------------------------------------------------------
-------------------------------------------------------------------------
-------------------------------------------------------------------------
---6-6h7p6-----------------6-6h7p6-P---------------6-6h7p6---------------
-----------8--7-8-7-5-7------------8--7-8-7-5-7------------8--7-8-7-5-7--
-0-----------------------0-----------------------0-----------------------
P = Pinch Harmonic.                   pm. . . .

-----------------------
-----------------------
-----------------------
---6-6h7p6----6h7p6----
-----------8--------8--
-0--------------------- continued from above.

------------------
------------------
------------------
-----3-5-3---3-2--
---2-------2------
-0----------------X8
 trem............
 pm..............

(Some Synth then a drum fill)

-----------------------------------
-----------------------------------
-----------------------------------
-5-6------------------5-6----------
-----4-5-2-5-5------------4-5-2-2--
-------3-0-3-3--------------3-0-0--X2
                                whammy bar dive.

------------------------------------
------------------------------------
-------------------------4310-------
-3-222-3-222-3-222-3-222------4310--
-1-000-1-000-1-000-1-000------------
------------------------------------X2
   pm.   ...   ...   ... .... ....

------------------------------------
------------------------------------
------------------------------------
-------------------------8754-------
-7-666-7-666-7-666-7-666------8754--
-5-444-5-444-5-444-5-444------------x2
   pm.   ...   ...   ... .... ....

------------------------------------
------------------------------------
-------------------------4310-------
-3-222-3-222-3-222-3-222------4310--
-1-000-1-000-1-000-1-000------------
------------------------------------X2
   pm.   ...   ...   ... .... ....

------------------------------------
------------------------------------
------------------------------------
-------------------------8754-------
-7-666-7-666-7-666-7-666------8754--
-5-444-5-444-5-444-5-444------------x2
   pm.   ...   ...   ... .... ....


--------0---0-------0---0-------0---0-------0---0--
------6---6-------6---6-------6---6-------6---6----
---------------------------------------------------
----7-----------7-----------7-----------7----------
---------------------------------------------------
-5------------5-----------5-----------5------------

------------------------------------0----0---------0----0--
-----------------------------------------------------------
-------7-----------7-------------10---10--------10---10----
-----8---8-------8---8--------10-------------10------------
---8-------8---8-------8-----------------------------------
-6-----------6--------------8--------------8---------------

------------------------------------
------------------------------------
-------------------------4310-------
-3-222-3-222-3-222-3-222------4310--
-1-000-1-000-1-000-1-000------------
------------------------------------X2
   pm.   ...   ...   ... .... ....

------------------------------------
------------------------------------
------------------------------------
-------------------------8754-------
-7-666-7-666-7-666-7-666------8754--
-5-444-5-444-5-444-5-444------------x2
   pm.   ...   ...   ... .... ....

------------------------------------
------------------------------------
-------------------------4310-------
-3-222-3-222-3-222-3-222------4310--
-1-000-1-000-1-000-1-000------------
------------------------------------X2
   pm.   ...   ...   ... .... ....

------------------------------------
------------------------------------
------------------------------------
-------------------------8754-------
-7-666-7-666-7-666-7-666------8754--
-5-444-5-444-5-444-5-444------------x2
   pm.   ...   ...   ... .... ....

(Clean)
--------0---0-------0---0-------0---0-------0---0--
------6---6-------6---6-------6---6-------6---6----
---------------------------------------------------
----7-----------7-----------7-----------7----------
---------------------------------------------------
-5------------5-----------5-----------5------------

------------------------------------0----0---------0----0--
-----------------------------------------------------------
-------7-----------7-------------10---10--------10---10----
-----8---8-------8---8--------10-------------10------------
---8-------8---8-------8-----------------------------------
-6-----------6--------------8--------------8---------------

--------0---0-------0---0-------0---0-------0---0--
------6---6-------6---6-------6---6-------6---6----
---------------------------------------------------
----7-----------7-----------7-----------7----------
---------------------------------------------------
-5------------5-----------5-----------5------------

------------------------------------0----0---------0----0--
-----------------------------------------------------------
-------7-----------7-------------10---10--------10---10----
-----8---8-------8---8--------10-------------10------------
---8-------8---8-------8-----------------------------------
-6-----------6--------------8--------------8---------------

--------0---0-------0---0-------0---0-------0---0--
------6---6-------6---6-------6---6-------6---6----
---------------------------------------------------
----7-----------7-----------7-----------7----------
---------------------------------------------------
-5------------5-----------5-----------5------------

------------------------------------0----0---------0----0--
-----------------------------------------------------------
-------7-----------7-------------10---10--------10---10----
-----8---8-------8---8--------10-------------10------------
---8-------8---8-------8-----------------------------------
-6-----------6--------------8--------------8---------------

------------------------------
------------------------------
---------------------7--------
---7-8-7-8-7---7-8-7---8-7-8--
-5-----------5----------------
------------------------------X2

-----------------------------------------------
-----------------------------------------------
-------------------------------7--------7------
----7--8--7--8--7-----7--8--7-----8--7---8p7---
-5-----------------5------------------------5--
-----------------------------------------------
                                            let ring.

THE END

any corrections mail em to: septic_flesh241@hotmail.com

  Visit MetalTabs.com for more metal tablature

bottom separator

Contact Us | Privacy Policy | Disclaimer | Legal Notice
Copyright © 2001-2014 MetalTabs.com. All Rights Reserved.