top separator

Home

Forum

What's New

Submit a Tab

FAQ

Links

Contact Us

Link to Us

MuSpy.com

MetalTabs.com logo

Bands

0-9

A

B

C

D

E

F

G

H

I

J

K

L

M

N

O

P

Q

R

S

T

U

V

W

X

Y

Z

Search

What

Where
 

Sodom - "Sodomized" Guitar Tab

Plain Text Version
More Sodom Tabs

Hits: 2669
Rated: 1.00 out of 5 (1 vote)
Updated: 2006-01-20 03:10:59

 

By:

sendpm.gif

email.gif

Important note
This tab is available online because we obtained explicit permission from Sodom or their label.


#----------------------------------PLEASE NOTE---------------------------------#
#This file is the author's own work and represents their interpretation of the #
#song. You may only use this file for private study, scholarship, or research. #
#Unless specified otherwise, this is NOT an official tab from the band members.#
#------------------------------------------------------------------------------#

  Visit MetalTabs.com for more metal tablature
  
Band:  SODOM
Album: Marooned
Song:  Sodomized

Copyright (c)  1994
Version 1.0 - 10.01.2006

Transcribed By: Flagge
Email:          haphazard@haphazardous.de




Tuning: D A D G B E



Riff 1

 G |----------------9--------------------------------------------------|
 D |---8---11---8---9--------------------------------------------------|
 A |---8---11---8---7--------------------------------------------------|
 D |---8---11---8------------------------------------------------------|


Riff 2

 D |---8---11---8---2---5----------------------------------------------|
 A |---8---11---8---2---5----------------------------------------------|
 D |---8---11---8---2---5----------------------------------------------|


Riff 3

 D |---6---7---4-------------------------------------------------------|
 A |---6---7---4-------------------------------------------------------|
 D |---6---7---4-------------------------------------------------------|


Riff 4

 D |---1---4--6--7-----------------------------------------------------|
 A |---1---4--6--7-----------------------------------------------------|
 D |---1---4--6--7-----------------------------------------------------|


Riff 5

 D |---10---6---11-----------------------------------------------------|
 A |---10---6---11-----------------------------------------------------|
 D |---10---6---11-----------------------------------------------------|


Riff 6

 D |---12---13---------------------------------------------------------|
 A |---12---13---------------------------------------------------------|
 D |---12---13---------------------------------------------------------|


ORDER:

Riff 1   1x
Riff 2   3x
Riff 3   4x
Riff 2   2x
Riff 3   4x
Riff 4   4x
Riff 2   2x
Riff 3   4x
Riff 4   4x
Riff 5   4x
Riff 6   4x
Riff 2   2x
Riff 3   4x
Riff 4   8x
END

  Visit MetalTabs.com for more metal tablature

bottom separator

Contact Us | Privacy Policy | Disclaimer | Legal Notice
Copyright © 2001-2014 MetalTabs.com. All Rights Reserved.