top separator

Home

Forum

FAQ

Contact Us

Link to Us

MetalTabs.com logo

Bands

0-9

A

B

C

D

E

F

G

H

I

J

K

L

M

N

O

P

Q

R

S

T

U

V

W

X

Y

Z

In Flames - "Stand Ablaze" Bass Tab

Plain Text Version
More In Flames Tabs

Hits: 823
Rated: 4.00 out of 5 (1 vote)
Updated: 2006-01-20 03:10:32

By:


#----------------------------------PLEASE NOTE---------------------------------#
#This file is the author's own work and represents their interpretation of the #
#song. You may only use this file for private study, scholarship, or research. #
#Unless specified otherwise, this is NOT an official tab from the band members.#
#------------------------------------------------------------------------------#

  Visit MetalTabs.com for more metal tablature
  
Band:  In Flames
Album: Subterranean
Song:  Stand Ablaze

Copyright (c)  Wrong Again Records 1995
Version 1.0  1/9/06

Transcribed By: Undead Crusader
Email:          brendonsv@cox.net

D Tuning (one step lower)

Intro Riff (2x)
|---------------------------------------------------|
|---5--5--5--5--------------3--3--3--3--------------|
|---------------7--7--7--7--------------5--5--5--5--|
|---------------------------------------------------|

|---------------------------------------------------|
|---------------------------------------------------|
|--6--6--6--6--6--6--6--6--5--5--5--5--5--5--5--5---|
|---------------------------------------------------|

Riff 1
|--------------------------------------------7--7--|
|--5--5--5--5--5--5--5--5--5--5--5--5--8--8--------|
|--------------------------------------------------|
|--------------------------------------------------|

|--------------------------------------5--5--------|
|--0--0--0--0--0--0--0--0--0--0--0--0--------8--8--|
|--------------------------------------------------|
|--------------------------------------------------|

|--------------------------------------7--7--5--5--|
|--5--5--5--5--5--5--5--5--5--5--8--8--------------|
|--------------------------------------------------|
|--------------------------------------------------|

|---------------------------------------------|
|--0--0--0--0--0--0--0--0--0--0--0--0--0------|
|---------------------------------------------|
|---------------------------------------------|

Riff 2 (2x)
|--------------------------------------------------|
|--------------------------------------------------|
|--------------------------------------1--1--3--3--|
|--3--3--3--3--3--3--3--3--3--3--3--3--------------|

|--------------------------------------------------|
|--------------------------------------------------|
|--5--5--5--5--5--5--5--5--5--5--5--5--3--3--1--1--|
|--------------------------------------------------|

Riff 3 (2x)
|---------------------------------------------------|
|---5--5--5-----------------3--3--3-----------------|
|------------7--7--7--7--7-----------5--5--5--5--5--|
|---------------------------------------------------|

|---------------------------------------------------|
|---------------------------------------------------|
|--6--6--6--3--3--3--3--3--5--5--5--5--6--6--8--8---|
|---------------------------------------------------|

Repeat Riff 2 (2x)

Repeat Riff 3 (2x)

Riff 4
|----------------------------------------------------------------------------|
|---------------------------------------------------------------3----5-------|
|---------------5-------------------------------------5----6--------------5--|
|--3-----------------3---------------3---------------------------------------|

Riff 5 (2x)
|----------------------------------------------------------------------|
|--5----5--5--5--5-----------------------------------------------------|
|-------------------5----5--5--5--5--3----3--3--3--3-------------5--5--|
|-----------------------------------------------------1----1--1--------|

|----------------------------------------------------------|
|--5----5--5--5--5---------------------------------5-------|
|-------------------5----5--5--5--5--6--------8---------5--|
|----------------------------------------------------------|

Riff 6 (2x)
|----------------------------------------------------------------------|
|--8----8--8--8--8-----------------------------------------------------|
|-------------------8----8--8--8--8--6----6--6--6--6-------------8--8--|
|-----------------------------------------------------4----4--4--------|

|----------------------------------------------------------|
|--8----8--8--8--8---------------------------------8-------|
|-------------------8----8--8--8--8--9-------11---------8--|
|----------------------------------------------------------|


Repeat Riff 2 (2x)

Repeat Intro Riff (2x)

Riff 7 (2x)
|----------------------------------------------------------|
|----------------------------------------------------------|
|--5------3--------------------5------3-------------5------|
|----------------3------6--------------------5-------------|

Riff 8 (2x)
|------------------------------------------------------------------|
|------------------------------------------------------------------|
|--5-5-5-5-5-5-5-5-----------------3-3-3-3-3-3-3-3-----------------|
|------------------3-3-3-3-3-3-3-3-----------------1-1-1-1-1-1-1-1-|

|------------------------------------------------------|
|------------------------------------------------------|
|--1-1-1-1-1-1-1-1-3-3-3-3-3-3-3-3-5----3----5----3----|
|------------------------------------------------------|

Repeat Riff 7 (2x)

Riff 9 (4x)
|----------------------------------------------------------------------------|
|----------------------------------------------------------------------------|
|--5--5---------------5--5---------------------------------1--------3--------|
|----------------------------------------3-----------------------------------|

Repeat Riff 8 (2x)

Repeat Riff 7

Ending
|----------------------------------------------------------|
|----------------------------------------------------------|
|--5------3--------------------5------3---------------5\---|
|----------------3------6--------------------5--5--5-------|

  Visit MetalTabs.com for more metal tablature

bottom separator

Contact Us | Privacy Policy | Disclaimer
Copyright © 2001-2014 MetalTabs.com. All Rights Reserved.