top separator

Home

Forum

FAQ

Contact Us

Link to Us

MetalTabs.com logo

Bands

0-9

A

B

C

D

E

F

G

H

I

J

K

L

M

N

O

P

Q

R

S

T

U

V

W

X

Y

Z

In Flames - "Behind Space" Bass Tab

Plain Text Version
More In Flames Tabs

Hits: 1223
Rated: 3.00 out of 5 (1 vote)
Updated: 2006-01-20 03:10:25

By:


#----------------------------------PLEASE NOTE---------------------------------#
#This file is the author's own work and represents their interpretation of the #
#song. You may only use this file for private study, scholarship, or research. #
#Unless specified otherwise, this is NOT an official tab from the band members.#
#------------------------------------------------------------------------------#

  Visit MetalTabs.com for more metal tablature
  
Band:  In Flames
Album: Lunar Strain
Song:  Behind Space

Copyright (c)  Wrong Again Records 1994
Version 1.0  1/9/06

Transcribed By: Undead Crusader
Email:          brendonsv@cox.net

D Tuning (one step lower)

Intro:
|-------------------------------------------------------------|
|-------------------------------------------------------------|
|-0----------0-----------7-7-7-5-5-8-8---7-7-7-8-8-5-5--------|
|----------------------0---------------0----------------------|

|-------------------------------------------------------------|
|-------------------------------------------------------------|
|-0----------0-0---------7-7-7-5-5-8-8---7-7-7-8-8-5-5--------|
|----------------------0---------------0----------------------|


Verse 1:
|-------------------------------------------------------------|
|-------------------------------------------------------------|
|-000-000-000-000-000-000--2-0-2-3----------------------------|   (2x)
|-------------------------------------------------------------|

Verse 2:
|-------------------------------------------------------------|
|-------------------------------------------------------------|
|-0-2-5-3-5-3-2-0-2-3-----------------------------------------|   (2x)
|-------------------------------------------------------------|

Repeat Intro

Verse 3:

|-----------------2-2-2-2-----------------2-2---------------------|
|---------2-2-2-2---------3-3-3-3-0-0-0-0-----0-0-2-2-0-0---------|
|-0-0-0-0-------------------------------------------------3-3-----|(2x)
|-------------------------------------------------------------3-3-|

Verse 4:
|-----------------------------------------------------------------|
|---------3-3-3-3-0-0-0-0-5-5-5-5---------------------------------|
|-0-0-0-0---------------------------------------------------------|(2x)
|---------------------------------5-5-5-5-1-1-1-1-3-3-3-3-0-0-0-0-|

Verse 5:
|-------------------------------------------------------------|
|-------------------------------------------------------------|
|-0-----------------------------------------------------------|  (6x)
|------111----3---0-00-0-0-0-0--------------------------------|

Repeat Intro

Repeat Verse 1 (2x)

Repeat Verse 2 (2x)


Verse 6:
|-------------------------------------------------------------|
|-------------------------------------------------------------|
|----------------1----1-1-------------------------------------|   (2x)
|-0-0-----0-0-------------------------------------------------|


Verse 7:
|---------------------------------------------------------------|
|---------------------------------------------------------------|
|---------------------------------------------------------------|  (2x)
|-0---3---0---3---0---3---0---3---0---2---0---2---0---2---0---2-|

Verse 8:
|---------------------------------------------------------------|
|---------------------------------------------------------------|
|-0---3---0---3---0---3---0---3---0---2---0---2---0---2---0---2-|  (2x)
|---------------------------------------------------------------|

Solo Backing 1:
|-------------------------------------------------------------|
|-------------------------------------------------------------|
|-------------------------------------------------------------|
|-0-------4-------0--------4----------------------------------|


Solo Backing 2:
|-------------------------------------------------------------|
|-------------------------------------------------------------|
|-0000-0000-0000-0000-4444-4444-4444-4444---------------------|  (2x)
|-------------------------------------------------------------|

Solo Backing 3:
|-------------------------------------------------------------|
|-------------------------------------------------------------|
|-0000-0000-0000-0000-6666-6666-6666-6666---------------------|  (2x)
|-------------------------------------------------------------|

Solo Backing 4:
|-------------------------------------------------------------|
|-------------------------------------------------------------|
|-------------------------------------------------------------|  (2x)
|-0000-0000-0000-0000-6666-6666-6666-6666---------------------|


Outro:
|-------------------------------------------------------------|
|-------------------------------------------------------------|
|-0----------0-----------7-7-7-5-5-8-8---7-7-7-8-8-5-5--------|
|----------------------0---------------0----------------------|

|-------------------------------------------------------------|
|-------------------------------------------------------------|
|-0----------0-0---------7-7-7-5-5-8-8---7-7-7-8-3-5----------|
|----------------------0---------------0-------------3-5------|

  Visit MetalTabs.com for more metal tablature

bottom separator

Contact Us | Privacy Policy | Disclaimer
Copyright © 2001-2014 MetalTabs.com. All Rights Reserved.