top separator

Home

Forum

What's New

Submit a Tab

FAQ

Links

Contact Us

Link to Us

MuSpy.com

MetalTabs.com logo

Bands

0-9

A

B

C

D

E

F

G

H

I

J

K

L

M

N

O

P

Q

R

S

T

U

V

W

X

Y

Z

Search

What

Where
 

The Absence - "Intro" Guitar Tab

Plain Text Version
More The Absence Tabs

Hits: 5351
Rated: 5.00 out of 5 (3 votes)
Updated: 2006-01-20 03:09:17

 

By:

sendpm.gif

email.gif

Important note
This tab is available online because we obtained explicit permission from The Absence or their label.


#----------------------------------PLEASE NOTE---------------------------------#
#This file is the author's own work and represents their interpretation of the #
#song. You may only use this file for private study, scholarship, or research. #
#Unless specified otherwise, this is NOT an official tab from the band members.#
#------------------------------------------------------------------------------#

  Visit MetalTabs.com for more metal tablature
  
INTRO
                           As recorded by The Absence
                      (From the 2005 Album FROM YOUR GRAVE)

Transcribed by justinb803@netscape.net

Tuning:  C Standard (C F Bb Eb G C)

 Main Riff
|--------------------|-------------|--------------------|-------------|
|--------------------|-------------|--------------------|-------------|
|--------------------|-------------|--------------------|-------------|
|--------------------|-------------|--------------------|-------------|
|-----7h9h10-9-7-9-5-|-9---10-7----|-----7h9h10-9-7-9-5-|-9---10-7----|
|-0------------------|-------------|-0------------------|-------------|


|--------------------|-------------|--------------------|--------------------|
|--------------------|-------------|--------------------|--------------------|
|--------------------|-------------|--------------------|--------------------|
|--------------------|-------------|--------------------|--------------------|
|-----7h9h10-9-7-9-5-|-9---10-7----|-----7h9h10-9-7-9-5-|-----7h9h10-9-7-9-5-|
|-8------------------|-------------|-5------------------|-7------------------|


 Harmony
|-------------------|------------|-------------------|------------|
|-------------------|------------|-------------------|------------|
|-------------------|------------|-------------------|------------|
|-----5h7h9-7-5-7-4-|-7---9-5----|-----5h7h9-7-5-7-4-|-7---9-5----|
|-------------------|------------|-------------------|------------|
|-0-----------------|------------|-0-----------------|------------|


|-------------------|------------|-------------------|-------------------|
|-------------------|------------|-------------------|-------------------|
|-------------------|------------|-------------------|-------------------|
|-----5h7h9-7-5-7-4-|-7---9-5----|-----5h7h9-7-5-7-4-|-----5h7h9-7-5-7-4-|
|-------------------|------------|-------------------|-------------------|
|-8-----------------|------------|-5-----------------|-7-----------------|


 First Lead
                               ~~~~~~~~~~~~~~~~
|----------|----------------|-----------|------------------------|
|----------|----------------|-----------|------------------------|
|-9--------|-(9)----9-11-12-|-11--------|-(11)----11h12-11-12-14-|
|----------|----------------|-----------|------------------------|
|----------|----------------|-----------|------------------------|
|----------|----------------|-----------|------------------------|


|----------------|---------------------|--------------|-------|
|----------------|---------------------|--------------|-------|
|-14b16----14----|-(14)----12-14-12h14-|-14b16--------|-14----|
|----------------|---------------------|--------------|-------|
|----------------|---------------------|--------------|-------|
|----------------|---------------------|--------------|-------|


 First Lead Harmony
                               ~~~~~~~~~~~~~~~~
|----------|----------------|-----------|------------------------|
|-8--------|-(8)----8-10-12-|-10--------|-(10)---10h12-10-12-13--|
|----------|----------------|-----------|------------------------|
|----------|----------------|-----------|------------------------|
|----------|----------------|-----------|------------------------|
|----------|----------------|-----------|------------------------|


|----------------|---------------------|--------------|-------|
|-13b15----13----|-(13)----12-13-12h13-|-13b15--------|-13----|
|----------------|---------------------|--------------|-------|
|----------------|---------------------|--------------|-------|
|----------------|---------------------|--------------|-------|
|----------------|---------------------|--------------|-------|


 Second Lead
                                         ~~
|-24-20-22-19-20-17-19-15-|-14-15-14-12-12----|
|-------------------------|-------------------|
|-------------------------|-------------------|
|-------------------------|-------------------|
|-------------------------|-------------------|
|-------------------------|-------------------|
|
|
|                                        ~~
|-------------24-20-22-19-|-20-17-19-15-12----|
|-------------------------|-------------------|
|-------------------------|-------------------|
|-------------------------|-------------------|
|-------------------------|-------------------|
|-------------------------|-------------------|


                                         ~~
|-24-20-22-19-20-17-19-15-|-14-15-14-12-12----|
|-------------------------|-------------------|
|-------------------------|-------------------|
|-------------------------|-------------------|
|-------------------------|-------------------|
|-------------------------|-------------------|
|
|                                        ~~
|-------------24-20-22-19-|-20-17-19-15-15----|
|-------------------------|-------------------|
|-------------------------|-------------------|
|-------------------------|-------------------|
|-------------------------|-------------------|
|-------------------------|-------------------|

  Visit MetalTabs.com for more metal tablature

bottom separator

Contact Us | Privacy Policy | Disclaimer | Legal Notice
Copyright © 2001-2014 MetalTabs.com. All Rights Reserved.