top separator

Home

Forum

What's New

Submit a Tab

FAQ

Links

Contact Us

Link to Us

MuSpy.com

MetalTabs.com logo

Bands

0-9

A

B

C

D

E

F

G

H

I

J

K

L

M

N

O

P

Q

R

S

T

U

V

W

X

Y

Z

Search

What

Where
 

Immortal - "Demonium" Guitar Tab

Plain Text Version
More Immortal Tabs

Hits: 5718
Rated: 4.50 out of 5 (4 votes)
Updated: 2006-01-20 03:08:43

 

By:

Robbie Filth

sendpm.gif

email.gif

Important note
We did our best to reach Immortal and ask for their permission to publish this tab. Unfortunately they did not respond to our requests or we could not find a way to contact them. This tab is available online until Immortal tells us to take it down.


#----------------------------------PLEASE NOTE---------------------------------#
#This file is the author's own work and represents their interpretation of the #
#song. You may only use this file for private study, scholarship, or research. #
#Unless specified otherwise, this is NOT an official tab from the band members.#
#------------------------------------------------------------------------------#

  Visit MetalTabs.com for more metal tablature
  
Band: Immortal
Album: Sons Of Northern Darkness
Song: Demonium
Record Label: Nuclear Blast
Tuning: D G C F A D

---------------------------------------------- 
---------------------------------------------- 
---------------------------------------------- 
-----???999---???999-----???999---9-?-13------ 
-2-2-888777-2-888777-2-2-888777-2-7-8-11------ 
-0-0--------0--------0-0--------0------------- 
   pm       .          .        .              
-----------------------------------------      X2
-----------------------------------------      
-----------------------------------------      
-----???999---???999-----???999----------      
-2-2-888777-2-888777-2-2-888777-2-2-3-6--      
-0-0--------0--------0-0--------0-0-1-4--      
   .        .          .        .              
? = 10                                         

--------------------------------------------- 
--------------------------------------------- 
--------------------------------------------- 
-----6\5-----6\5-----------6\5-----6\5-0000-- 
-----4\3-----4\3-----------4\3-----4\3-1111-- 
-111-----111-----111222111-----111----------- 
 pm.     ...     .........     ...            
                                              X2
--------------------------------------------  
--------------------------------------------  
--------------------------------------------  
-----6\5-----6\5-----------6\5-----6-5-6-8--  
-----4\3-----4\3-----------4\3-----4-3-4-6--  
-111-----111-----111222111-----111----------  
 pm.     ...     .........     ...            

-------------------------------------------------------------------------
-------------------------------------------------------------------------
-----44--22------------44--22-------------44--22-----------44--22--1111--
---44--------4444----44--------555444---44--------4444---44--------------
-22----22--22------22----22--22-------22----22--22-----22----22--22------
-------------------------------------------------------------------------
 pm    ..  ..      ..    ..  ..       ..    ..  ..     ..    ..  ..

---------------------------------------------
---------------------------------------------
---------------------------------------------
-----6\5-----6\5-----------6\5-----6\5-0000--
-----4\3-----4\3-----------4\3-----4\3-1111--
-111-----111-----111222111-----111-----------
 pm.     ...     .........     ...

--------------------------------------------
--------------------------------------------
--------------------------------------------
-----6\5-----6\5-----------6\5-----6-5-6-8--
-----4\3-----4\3-----------4\3-----4-3-4-6--
-111-----111-----111222111-----111----------
 pm.     ...     .........     ...

---------------------------------------------------------------------------
---------------------------------------------------------------------------
-----44--22------------44--22-------------44--22-----------44--22----------
---44--------4444----44--------555444---44--------4444---44--------555444--
-22----22--22------22----22--22-------22----22--22-----22----22--22--------
---------------------------------------------------------------------------X2
 pm    ..  ..      ..    ..  ..       ..    ..  ..     ..    ..  ..

-------------------------------------------------------------------------
-------------------------------------------------------------------------
-----44--22------------44--22-------------44--22-----------44--22--1111--
---44--------4444----44--------555444---44--------4444---44--------------
-22----22--22------22----22--22-------22----22--22-----22----22--22------
-------------------------------------------------------------------------
 pm    ..  ..      ..    ..  ..       ..    ..  ..     ..    ..  ..

---------------------------------------------- 
---------------------------------------------- 
---------------------------------------------- 
-----???999---???999-----???999---9-?-13------ 
-2-2-888777-2-888777-2-2-888777-2-7-8-11------ 
-0-0--------0--------0-0--------0------------- 
   pm       .          .        .              
-----------------------------------------      X2
-----------------------------------------      
-----------------------------------------      
-----???999---???999-----???999----------      
-2-2-888777-2-888777-2-2-888777-2-2-3-6--      
-0-0--------0--------0-0--------0-0-1-4--      
   .        .          .        .              
? = 10                                         

--------------------------------------------- 
--------------------------------------------- 
--------------------------------------------- 
-----6\5-----6\5-----------6\5-----6\5-0000-- 
-----4\3-----4\3-----------4\3-----4\3-1111-- 
-111-----111-----111222111-----111----------- 
 pm.     ...     .........     ...            
                                              X2
--------------------------------------------  
--------------------------------------------  
--------------------------------------------  
-----6\5-----6\5-----------6\5-----6-5-6-8--  
-----4\3-----4\3-----------4\3-----4-3-4-6--  
-111-----111-----111222111-----111----------  
 pm.     ...     .........     ...            

---------------------------------------------------------------------------
---------------------------------------------------------------------------
-----44--22------------44--22-------------44--22-----------44--22----------
---44--------4444----44--------555444---44--------4444---44--------555444--
-22----22--22------22----22--22-------22----22--22-----22----22--22--------
---------------------------------------------------------------------------X2
 pm    ..  ..      ..    ..  ..       ..    ..  ..     ..    ..  ..

-------------------------------------------------------------------------
-------------------------------------------------------------------------
-----44--22------------44--22-------------44--22-----------44--22--1111--
---44--------4444----44--------555444---44--------4444---44--------------
-22----22--22------22----22--22-------22----22--22-----22----22--22------
-------------------------------------------------------------------------
 pm    ..  ..      ..    ..  ..       ..    ..  ..     ..    ..  ..

------------------------------------
------------------------------------
------------------------------------
------------------------------------
---------44444444--------55555-6-6--
-66666666666666666666666666666---4--X3

----------------------------------
----------------------------------
----------------------------------
----------------------------------
---------44444444--------5555555--
-6666666666666666666666666666666--

--------------------------------------------------------------------
--------------------------------------------------------------------
--------------------------------------------------------------------
--------------------------------------------------------------------
-8888888888888888-8-4-4-44444444---8888888888888888-8-5-5-55555555--
-6666666666666666-6-2-2-22222222---6666666666666666-6-3-3-33333333--X2
 pm..............       ........   ................       ........

------------------------------------
------------------------------------
------------------------------------
------------------------------------
---------44444444--------55555-6-6--
-66666666666666666666666666666---4--

----------------------------------
----------------------------------
----------------------------------
----------------------------------
---------44444444--------5555555--
-6666666666666666666666666666666--

--------------------------------------------------------------------
--------------------------------------------------------------------
--------------------------------------------------------------------
--------------------------------------------------------------------
-8888888888888888-8-4-4-44444444---8888888888888888-8-5-5-55555555--
-6666666666666666-6-2-2-22222222---6666666666666666-6-3-3-33333333--X4
 pm..............       ........   ................       ........

---------------------------------------------- 
---------------------------------------------- 
---------------------------------------------- 
-----???999---???999-----???999---9-?-13------ 
-2-2-888777-2-888777-2-2-888777-2-7-8-11------ 
-0-0--------0--------0-0--------0------------- 
   pm       .          .        .              
-----------------------------------------      X2
-----------------------------------------      
-----------------------------------------      
-----???999---???999-----???999----------      
-2-2-888777-2-888777-2-2-888777-2-2-3-6--      
-0-0--------0--------0-0--------0-0-1-4--      
   .        .          .        .              
? = 10                                         

--------------------------------------------- 
--------------------------------------------- 
--------------------------------------------- 
-----6\5-----6\5-----------6\5-----6\5-0000-- 
-----4\3-----4\3-----------4\3-----4\3-1111-- 
-111-----111-----111222111-----111----------- 
 pm.     ...     .........     ...            
                                              X2
--------------------------------------------  
--------------------------------------------  
--------------------------------------------  
-----6\5-----6\5-----------6\5-----6-5-6-8--  
-----4\3-----4\3-----------4\3-----4-3-4-6--  
-111-----111-----111222111-----111----------  
 pm.     ...     .........     ...            

Any comments or corrections mail em to:
septic_flesh241@hotmail.com

  Visit MetalTabs.com for more metal tablature

bottom separator

Contact Us | Privacy Policy | Disclaimer | Legal Notice
Copyright © 2001-2014 MetalTabs.com. All Rights Reserved.