top separator

Home

Forum

What's New

Submit a Tab

FAQ

Links

Contact Us

Link to Us

MetalTabs.com logo

Bands

0-9

A

B

C

D

E

F

G

H

I

J

K

L

M

N

O

P

Q

R

S

T

U

V

W

X

Y

Z

Search

What

Where
 

Exumer - "Fallen Saint" Guitar Tab

Plain Text Version
More Exumer Tabs

Hits: 6395
Rated: 4.67 out of 5 (3 votes)
Updated: 2006-01-07 22:24:46

 

By:

nick_fury

sendpm.gif

email.gif

Important note
We did our best to reach Exumer and ask for their permission to publish this tab. Unfortunately they did not respond to our requests or we could not find a way to contact them. This tab is available online until Exumer tells us to take it down.


#----------------------------------PLEASE NOTE---------------------------------#
#This file is the author's own work and represents their interpretation of the #
#song. You may only use this file for private study, scholarship, or research. #
#Unless specified otherwise, this is NOT an official tab from the band members.#
#------------------------------------------------------------------------------#

  Visit MetalTabs.com for more metal tablature
  
Band:  Exumer
Album: Possessed by Fire
Song:  Fallen Saint

Copyright (c)  Disaster 1986
Version 1.0 - 3.01.2006

Transcribed By: nick_fury
Email:          boltsick@wp.pl


.  - palm mute           /  - slide up to
\  - slide down to       ~  - vibrato
h  - hammer on           b  - Bend
p  - pull off            Suffixes for bend
t  - tap                 f  - full bend    h - half bend
ph - pinched harmonic    q  - quarter bend t - tap bend
*  - see comment         ^  - Hold bend    r release bend
x  - Stuccatto           ~  - vibrato bend
,  - slight palm mute    () - ghost note, sustained note
"  - tremolo note        <> - Trill

Simple but very nice song from Exumer's debut.
It may be not 100% correct because my "Possessed
by Fire" vinyl is very scratched and it's difficult to
hear some parts. Anyway, the main idea of the song
is there.

NOTES:
 - Listen to the album to get the correct timing.
 - Solo missing at the moment. I'll try to figure
   it out, but I'm a rhythm guitarist, who's not
   very keen on playing solos, so don't expect
   anything brilliant.
 - Stanard tuning E A D G B E


 MAIN RIFF
|----------------------------------------------------------|
|----------------------------------------------------------|
|----------------------------------------------------------|
|------------------------------------12-----11---7----9----|
|------------------------------------10-----9----5----7----|
|-0000000000000000000000000000000000-----------------------|
   ..................................

 CHORUS RIFF
|--------------------------------------|
|--------------------------------------|
|--------------------------------------|
|--------------------------------------|
|-------7b------7h8-----7b-------------|
|---0-0-----0-0-----0-0----0-0-8-7-5---|

 BREAK FIG. 1
|-----------------------------------------|
|-----------------------------------------|
|-----------------------------------------|
|-----------------------------------------|
|---33333333-22222222---------------------|
|---------------------44444444-00000000---|
    ........ ........ ........ ........

 BREAK FIG. 2
|-------------------------------|-----------------------------------|
|-------------------------------|-----------------------------------|
|----------------------3-----3--|----------------------3------------|
|------5-------4-------3-333-3--|------5-------4-------3-----2------|
|------5-------4-------1-111-1--|------5-------4-------1---2-0-5-4--|
|--000-3---000-2---000----------|--000-3---000-2---000-----0---3-2--|
 1st-3rd time            ...      4th time             not sure about
                                                       this ending

 BREAK FIG. 3
|---------------------------------------------------------|
|---------------------------------------------------------|
|------------2------------------------2-------------------|
|--2----5----2----5-4-------2----5----2----5-4------------|
|--2----5----0----3-2-5-4---2----5----0----3-2-5-4-2-4-5--|
|--0----3-------------3-2---0----3-------------3-2-0-2-3--|

 BREAK FIG. 4
|----------------------------------------|
|----------------------------------------|
|----------------------------------------|
|------4---3----4---3--------------------|
|------2---1----2---1-0-0-0-0-0----------|
|--0-0---0---00---0-------------4-3-1-0--|
   . .   .   ..   .   . . . . . . . . .

 INTERRUPT
|-19b-19b-19b-|
|-------------|
|-------------|
|-------------|
|-------------|
|-------------|


 SOLO RHYTHM
|-------------------------------------|
|-------------------------------------|
|-------------------------------------|
|-------------------------------------|
|--------------------------------3p2--|
|--00000-3-00000-2-00000-3-00000------|
   .....   .....   .....   .....

:SONG STRUCTURE:
drums enter
main riff   x 6
chorus riff x 4
main riff   x 6
chorus riff x 4
break fig. 1
break fig. 2
break fig. 3
break fig. 4 x 8
interrupt
break fig. 4 x 6
iterrupt
solo rhythm x 11
main riff   x 6
chorus riff x 4
END

  Visit MetalTabs.com for more metal tablature

bottom separator

Contact Us | Privacy Policy | Disclaimer | Legal Notice
Copyright © 2001-2014 MetalTabs.com. All Rights Reserved.