#----------------------------------PLEASE NOTE---------------------------------#
#This file is the author's own work and represents their interpretation of the #
#song. You may only use this file for private study, scholarship, or research. #
#Unless specified otherwise, this is NOT an official tab from the band members.#
#------------------------------------------------------------------------------#

  Visit MetalTabs.com for more metal tablature
  
Band:  Gorguts
Album: From Wisdom To Hate
Song:  Unearthing The Past

Copyright (c) Season Of Mist (2000)
Version 1.1  04.01.2006

Transcribed By: Robert Nowak
Email:          robert.n74@web.de
Bands:          unchallengedhate.de
                japanischekampfhoerspiele.de

.  - palm mute           /  - slide up to
\  - slide down to       ~  - vibrato
h  - hammer on           b  - Bend
p  - pull off            Suffixes for bend
t  - tap                 f  - full bend    h - half bend
ph - pinched harmonic    q  - quarter bend t - tap bend
~  - vibrato bend        ^  - Hold bend    r release bend
nh  natural harmonic

r  - let ring this note

note: i didnt marked all the necessary notes with an r
      (let ring this note during playing)
      I think its confusing the tab and you can hear the
      parts for yourself so there should be no need for it.


If you have questions or ideas for fixing bugs please contact me.


Tuning: C F A# D# G C


Guitar 1 = left side
Guitar 2 = right side


RIFF 1 (0:00) intro both gtr.
|----------------------------||
|----------------------------||
|-------4--------------------||
|---5-6---3------------------||
|----------------8-6-----7---||
|-4-------1------0-0---0-4---||
  . . .                .

RIFF 2 (0:02) gtr. 1 / 3 times
|----------------------------------------------------
|---0-------0----------------------------------------
|---4-------4------------------------------4-------4-
|-3-2-----3-2-------------------3h5----5-6-----5-3---
|-3-------3-------0-1-3-5-0-0-3----------------------
|-------0-------0--------------------4-------1-------
        .       . . . . . . . .      . . .   . . .

 -----------------------||
 -----------------------||
 -----------------------||
 ---------6-\-3--3-/-5--||
 -8-6-------------------||
 -0-0---0-4-\-1--1-/-3--||
        .


RIFF 2 continue gtr. 1 / last time
|------------------------------------||
|---0-------0------------------------||
|---4-------4------------------------||
|-3-2-----3-2-------------------3h5--||
|-3-------3-------0-1-3-5-0-0-3------||
|-------0-------0--------------------||
        .       . . . . . . . .


RIFF 2 (0:02) gtr. 2 / 3 times
|----------------------------------------------------
|----------------------------------------------------
|------------------------------------------4-------4-
|-3-2-------2-----------0-2-0---3h5----5-6-----5-3---
|-3-3-------3---1-0-----------3----------------------
|-------0-1---------1h5--------------4-------1-------
  .     . .     . . .   . . . .      . . .   . . .

 -----------------------||
 -----------------------||
 -----------------------||
 ---------6-\-3--3-/-5--||
 -8-6-------------------||
 -0-0---0-4-\-1--1-/-3--||
        .


RIFF 2 continue gtr. 2 / last time
|------------------------------------||
|------------------------------------||
|------------------------------------||
|-3-2-------2-----------0-2-0---3h5--||
|-3-3-------3---1-0-----------3------||
|-------0-1---------1h5--------------||
  .     . .     . . .   . . . .

RIFF 3 (0:18) gtr. 1 / 2 times
|-------------------------------------------------------------
|-------------------------------------------------0-0---------
|-------------------------------------5-5---------3-3---------
|---7~---7--------8--7-\---3~---3-----3-3---------2-2---------
|-------------------------------------------3-----------3-----
|-5----5-----5-4-----5-\-1----1-----0-1-1-0---1-0-----0---1-0-
                                          . . . .     . . . .



 ----------------------------------------||
 ---------------------------------0------||
 ------------------------5---------------||
 ---7~---7------3------------------------||
 ------------------------3---------------||
 -5----5-----1-----0-/-2-2---4--5-----1--||
                       .        .



RIFF 3 (0:18) gtr. 2 / 2 times
|-------------------------------------------------------------
|-------------------------------------------------0-0---------
|-------------------------------------5-5---------3-3---------
|---7~---7--------8--7-\---3~---3-----3-3---------2-2---------
|-------------------------------------------3-----------3-----
|-5----5-----5-4-----5-\-1----1-----0-1-1-0---1-0-----0---1-0-
                                          . . . .     . . . .

 ----------------------------------------||
 ----------------------------------------||
 ----------------------------------------||
 ---7~---7------3--------4---6----7----3-||
 ----------------------------------------||
 -5----5-----1-----0-/-2-2---4--5-5----1-||
                       .        .



RIFF 4 (0:34) gtr. 1
|-------------------------------------------------------------
|------------0-----------------0------------------------------
|---5-----------------5---------------------------------------
|-------------------------------------------------------------
|---3-----------------3---------------------5-0---------5-0---
|-2-2---4--5-----1--2-2---4--5-----1--5-022-----5-5-220-----5-
  .        .        .        .        . ... . . . . ... . . .

 -------------------------------------------------------
 ------------0-----------------0-----------------0------
 ---5-----------------5-----------------5---------------
 -------------------------------------------------------
 ---3-----------------3-----------------3---------------
 -2-2---4--5-----1--2-2---4--5-----1--2-2---4--5-----1--
  .        .        .        .        .        .

 -------------------------||
 -------------------------||
 -------------------------||
 -------------------------||
 -------5-0---------5-0---||
 -5-022-----5-5-220-----5-||
  . ... . . . . ... . . .




RIFF 4 (0:34) gtr. 2
|-------------------------------------------------------------
|-------------------------------------------------------------
|-------------------------------------------------------------
|---4---6----7---3----4---6----7---3--------------------------
|-------------------------------------------5-0-5-------5-0-5-
|-2-2---4--5-5---1--2-2---4--5-5---1--5-022-------5-220-------
  .        .        .        .        . ... . . . . ... . . .

 -------------------------------------------------------
 -------------------------------------------------------
 -------------------------------------------------------
 ---4---6----7---3----4---6----7---3----4---6----7---3--
 -------------------------------------------------------
 -2-2---4--5-5---1--2-2---4--5-5---1--2-2---4--5-5---1--
  .        .        .        .        .        .

 -------------------------||
 -------------------------||
 -------------------------||
 -------------------------||
 -------5-0-5-------5-0-5-||
 -5-022-------5-220-------||
  . ... . . . . ... . . .

RIFF 5 (0:48) both gtr.
|-------------------------------------------------
|-------------------------------------------------
|-------------------------------------------------
|-3-3-3-------3-3-3-------7-7-7-------5-5-5-------
|-4-4-4-------4-4-4-------8-8-8-------6-6-6-------
|-2-1-1-0-1-0-2-1-1-0-1-0-6-5-5-0-5-6-4-3-3-0-3-0-
        . . .       . . .       . . .       . . .

 -----------------------------------------------
 -----------------------------------------------
 -----------------0-------0-------0-3-3---------
 ---5---5---5-------5-------3---3---2-2---------
 -----------------------------------1-1---------
 -4---4---4---3---------1-----1---------1-0-1-0-
                                        . . . .

 -------------------------------------------------
 -------------------------------------------------
 -------------------------------------------------
 -3-3-3-------3-3-3-------6-6-6-------8-8-8-------
 -4-4-4-------4-4-4-------7-7-7-------9-9-9-------
 -2-1-1-0-1-0-2-1-1-0-1-0-5-4-4-0-4-5-7-6-6-0-6-0-
        . . .       . . .       . . .       . . .

 -----------------------------------------------
 -----------------------------------------------
 -----------------0-------0-------0-3-3---------
 ---5---5---5-------5-------3---3---2-2---------
 -----------------------------------1-1---------
 -4---4---4---3---------1-----1---------1-0-1-0-
                                        . . . .

 -------------------------------------------------
 -------------------------------------------------
 -------------------------------------------------
 -3-3-3-------3-3-3-------7-7-7-------5-5-5-------
 -4-4-4-------4-4-4-------8-8-8-------6-6-6-------
 -2-1-1-0-1-0-2-1-1-0-1-0-6-5-5-0-5-6-4-3-3-0-3-0-
        . . .       . . .       . . .       . . .

 () = lower note for gtr. 1 / higher note gtr. 2
 -------------------------------------------------------
 -------------------------------------------------------
 -------------------------------------------------------
 ---------------5\4-4/6-6\5----------------5\4-4/6-6\5--
 -------5-0-(5)--------------------5-0-(5)--------------
 -5-022-----(5)-3\2-2/4-4\3--5-220-----(5)-3\2-2/4-4\3--
  . ... . .  .               . ... . .  .

 -------------------------------------------------
 -------------------------------------------------
 -------------------------------------------------
 -3-3-3-------3-3-3-------6-6-6-------8-8-8-------
 -4-4-4-------4-4-4-------7-7-7-------9-9-9-------
 -2-1-1-0-1-0-2-1-1-0-1-0-5-4-4-0-4-5-7-6-6-0-6-0-
        . . .       . . .       . . .       . . .


() = lower note for gtr. 1 / higher note gtr. 2
 -------------------------------------------------------||
 -------------------------------------------------------||
 -------------------------------------------------------||
 ---------------5\4-4/6-6\5----------------5\4-4/6-6\5--||
 -------5-0-(5)--------------------5-0-(5)--------------||
 -5-022-----(5)-3\2-2/4-4\3--5-220-----(5)-3\2-2/4-4\3--||
  . ... . .  .               . ... . .  .


RIFF 6 (1:18) gtr. 1
|-------------------------||
|-------------------------||
|-----------------3/4-----||
|-----5/6---0-----------0-||
|---4-----5---2-5-----2---||
|-1-----------------------||
  . .     .   . .     . .


RIFF 6 (1:18) gtr. 2
|-------------------------||
|-------------------------||
|-------------------------||
|-3-------6-----------9---||
|-------------------------||
|-1-------4-----------7---||





RIFF 7 (1:20) gtr.1
|-------------------------------------
|-------------------------------------
|------------------0------------------
|-10\7-------------0--/10-----6-------
|-0--------------6--------0-----0-----
|-------0--5-6-7------------7-----4/7-
        .

 -------------------------------------||
 -------------------------------------||
 ------------------0------------------||
 -10\7-------------0--/10-----6-------||
 -0--------------6--------0-----0-----||
 -------0--5-6-7------------7-----4/7-||
        .

RIFF 7 (1:20) gtr.2
|-------------------------------------
|-------------------------------------
|-------------------------------------
|-10----------------------------------
|-------------------------------------
|-8-----------------------------------

 -------------------------------------||
 -------------------------------------||
 -------------------------------------||
 -------------------------------------||
 -------------------------------------||
 -------------------------------------||



RIFF 7 (1:25) both gtr. / 4 times
|-------------------------------------||
|-------------------------------------||
|------------------0------------------||
|-10\7-------------0--/10-----6-------||
|-0--------------6--------0-----0-----||
|-------0--5-6-7------------7-----4/7-||
        .


RIFF 7b (1:35) both gtr. / 4 times
|-------------------------------------||
|-------------------------------------||
|-10\7-------------0--/10-----6-------||
|-0----------------0------0-----0-----||
|----------------6----------7-----4/7-||
|-------0--5-6-7----------------------||
        .



RIFF 7 (1:45) both gtr. / 2 times
|-------------------------------------||
|-------------------------------------||
|------------------0------------------||
|-10\7-------------0--/10-----6-------||
|-0--------------6--------0-----0-----||
|-------0--5-6-7------------7-----4/7-||
        .

RIFF 7b (1:50) both gtr.
|-------------------------------------
|-------------------------------------
|-10\7-------------0--/10-----6-------
|-0----------------0------0-----0-----
|----------------6----------7-----4/7-
|-------0--5-6-7----------------------
        .
 -----------------------------------||
 -----------------------------------||
 -10\7-------------0--/10-----6-----||
 -0----------------0------0-----0---||
 ----------------6----------7-----4-||
 -------0--5-6-7--------------------||
        .

RIFF 8 (1:55) both gtr.
|---------------------------------------------------------||
|--------------------------0------------------------------||
|-------------0------------0--0---------------0--------0--||
|-8--------6------------------0------------3--4--------0--||
|-------------------3-/-6---------------------------0-----||
|----5--4--------0---------------9--8-\-2--------1--4-----||


RIFF 9 (2:09) both gtr. / 2 times
|---------------------------------
|---------------------------------
|-------0-----------3-------------
|-------5-\-0---------6-----3-3---
|-1-/-----------------------------
|-3-/-----------4---------2-------

 -----------------------------------||
 -----------------------------------||
 -------0-----------3---------------||
 -------5-\-0---------6-----6-------||
 -1-/-------------------------------||
 -3-/-----------4---------2---2/4\2-||




SOLO (2:21)




RIFF 10 (2:21) rhythm / 2 times
|-------------------------------
|-------------------------------
|-------------------------------
|-------5-----------------3-----
|-1-/-----5-6-------------------
|-3-/---------9-4-6-5-4-2---5-2-
        . . . . . . . . . . . .

 -------------------------------||
 -------------------------------||
 -------------------------------||
 -------5-----------------6-7---||
 -1-/-----5-6-------------------||
 -3-/---------9-4-6-5-4-2-4-5-2-||
        . . . . . . . . . . . .


again RIFF 9  (2:32)
again RIFF 10 (2:44)

SOLO ending (2:56)

RIFF 11 (2:56) both gtr. rhythm
|------------------------------------||
|------------------------------------||
|------------------------------------||
|-------8-----------3-----whammy bar-||
|-6----------------------------------||
|-4-----6---4---2---1---2-/--\-------||


RIFF 12 (3:01) gtr. 1
|-----------------------------------------------------
|-0---------0---0---------0---------------------------
|-5~~~------5~~~3~~~------3~~~------------------------
|-3---------3---3~~~------3~~~---8--8--------3--3-----
|-3---------3---1---------1---------0-----------0-----
|-----0--0----------0--0------4-----4-----2-----2-----
      .  .          .  .

 -----------------------------------------------------------------
 -----------------------------------------------------------------
 -8~~~------7~~~6~~~------5~~~------------------------------------
 -----------------------------------8-----------3-----------------
 -7~~~------6~~~5~~~------4~~~0-----0-----0-----0-----0-----0-----
 -----0--0----------0--0------4-----6-----4-----2-----1-----2-----
      .  .          .  .

 -----------------------------------------------------
 -0---------0---0---------0---------------------------
 -5~~~------5~~~3~~~------3~~~------------------------
 -3---------3---3~~~------3~~~---8--8--------3--3-----
 -3---------3---1---------1---------0-----------0-----
 -----0--0----------0--0------4-----4-----2-----2-----
      .  .          .  .

 ------------------------------------------------------||
 ------------------------------------------------------||
 -8~~~------7~~~6~~~------5~~~4~~~------3~~~3----------||
 -------------------------------------------2----------||
 -7~~~------6~~~5~~~------4~~~3~~~------2~~~1----------||
 -----0--0----------0--0----------0--0------0----------||
      .  .          .  .

RIFF 12 (3:01) gtr. 2
|-----------------------------------------------------
|-----------------------------------------------------
|-5~~~------5~~~3~~~------3~~~------------------------
|-3---------3---3~~~------3~~~---7-----------4--------
|-3---------3---1---------1---------------------------
|-1---0--0--1---1---0--0--1---5-----5--\--1-----1-----
      .  .          .  .

 -----------------------------------------------------------------
 -----------------------------------------------------------------
 -8~~~------7~~~6~~~------5~~~------------------------------------
 -----------------------------------8-----------------3-----------
 -7~~~------6~~~5~~~------4~~~------------------------------------
 -----0--0----------0--0------4-----6-----4-----2-----1-----2-----
      .  .          .  .

 -----------------------------------------------------
 -----------------------------------------------------
 -5~~~------5~~~3~~~------3~~~------------------------
 -3---------3---3~~~------3~~~---7-----------4--------
 -3---------3---1---------1---------------------------
 -1---0--0--1---1---0--0--1---5-----5--\--1-----1-----
      .  .          .  .

 ------------------------------------------------------||
 ------------------------------------------------------||
 -8~~~------7~~~6~~~------5~~~4~~~------3~~~3----------||
 -------------------------------------------2----------||
 -7~~~------6~~~5~~~------4~~~3~~~------2~~~1----------||
 -----0--0----------0--0----------0--0------0----------||
      .  .          .  .

RIFF 3 (3:41) gtr. 1
|-------------------------------------------------------------
|-------------------------------------------------0-0---------
|-------------------------------------5-5---------3-3---------
|---7~---7--------8--7-\---3~---3-----3-3---------2-2---------
|-------------------------------------------3-----------3-----
|-5----5-----5-4-----5-\-1----1-----0-1-1-0---1-0-----0---1-0-
                                          . . . .     . . . .

 ----------------------------------------
 ---------------------------------0------
 ------------------------5---------------
 ---7~---7------3------------------------
 ------------------------3---------------
 -5----5-----1-----0-/-2-2---4--5-----1--
                       .        .

 -------------------------------------------------------------
 -------------------------------------------------0-0---------
 -------------------------------------5-5---------3-3---------
 ---7~---7--------8--7-\---3~---3-----3-3---------2-2---------
 -------------------------------------------3-----------3-----
 -5----5-----5-4-----5-\-1----1-----0-1-1-0---1-0-----0---1-0-
                                          . . . .     . . . .

 --------------------||
 --------------------||
 --------------------||
 ---7~---7------3----||
 --------------------||
 -5----5-----1-----0-||


RIFF 3 (3:41) gtr. 2
|-------------------------------------------------------------
|-------------------------------------------------0-0---------
|-------------------------------------5-5---------3-3---------
|---7~---7--------8--7-\---3~---3-----3-3---------2-2---------
|-------------------------------------------3-----------3-----
|-5----5-----5-4-----5-\-1----1-----0-1-1-0---1-0-----0---1-0-
                                          . . . .     . . . .

 ----------------------------------------
 ----------------------------------------
 ----------------------------------------
 ---7~---7------3--------4---6----7----3-
 ----------------------------------------
 -5----5-----1-----0-/-2-2---4--5-5----1-
                       .        .

 -------------------------------------------------------------
 -------------------------------------------------0-0---------
 -------------------------------------5-5---------3-3---------
 ---7~---7--------8--7-\---3~---3-----3-3---------2-2---------
 -------------------------------------------3-----------3-----
 -5----5-----5-4-----5-\-1----1-----0-1-1-0---1-0-----0---1-0-
                                          . . . .     . . . .

 --------------------||
 --------------------||
 --------------------||
 ---7~---7------3----||
 --------------------||
 -5----5-----1-----0-||




again RIFF 5 (3:56)




RIFF 4 (4:27) gtr. 1 / 3 times
|-------------------------------------------------------
|------------0-----------------0-----------------0------
|---5-----------------5-----------------5---------------
|-------------------------------------------------------
|---3-----------------3-----------------3---------------
|-2-2---4--5-----1--2-2---4--5-----1--2-2---4--5-----1--
  .        .        .        .        .        .

 -------------------------||
 -------------------------||
 -------------------------||
 -------------------------||
 -------5-0---------5-0---||
 -5-022-----5-5-220-----5-||
  . ... . . . . ... . . .


RIFF 4 continue gtr. 1 last time / ending
|-------------------------------------------------------
|------------0-----------------0-----------------0------
|---5-----------------5-----------------5---------------
|-------------------------------------------------------
|---3-----------------3-----------------3---------------
|-2-2---4--5-----1--2-2---4--5-----1--2-2---4--5-----1--
  .        .        .        .        .        .

 -------------------------------------------------||
 -------------------------------------------------||
 -------------------------------------------------||
 -------------------------------------------------||
 -------5-0---------5-0---------5-0---------5-0-0-||
 -5-022-----5-5-220-----5-5-022-----5-5-220---5-5-||
  . ... . . . . ... . . . . ... . . . . ... . . .



RIFF 4 (4:27) gtr. 2 / 3 times
|-------------------------------------------------------
|-------------------------------------------------------
|-------------------------------------------------------
|---4---6----7---3----4---6----7---3----4---6----7---3--
|-------------------------------------------------------
|-2-2---4--5-5---1--2-2---4--5-5---1--2-2---4--5-5---1--
  .        .        .        .        .        .

 -------------------------||
 -------------------------||
 -------------------------||
 -------------------------||
 -------5-0-5-------5-0-5-||
 -5-022-------5-220-------||
  . ... . . . . ... . . .




RIFF 4 continue gtr. 2 last time / ending
|-------------------------------------------------------
|-------------------------------------------------------
|-------------------------------------------------------
|---4---6----7---3----4---6----7---3----4---6----7---3--
|-------------------------------------------------------
|-2-2---4--5-5---1--2-2---4--5-5---1--2-2---4--5-5---1--
  .        .        .        .        .        .

 -------------------------------------------------||
 -------------------------------------------------||
 -------------------------------------------------||
 -------------------------------------------------||
 -------5-0-5-------5-0-5-------5-0-5-------5-0-0-||
 -5-022-------5-220-------5-022-------5-220---5-5-||
  . ... . . . . ... . . . . ... . . . . ... . . .

E N D

  Visit MetalTabs.com for more metal tablature