top separator

Home

Forum

What's New

Submit a Tab

FAQ

Links

Contact Us

Link to Us

MetalTabs.com logo

Bands

0-9

A

B

C

D

E

F

G

H

I

J

K

L

M

N

O

P

Q

R

S

T

U

V

W

X

Y

Z

Search

What

Where
 

Severe Torture - "Meant To Suffer" Guitar Tab

Plain Text Version
More Severe Torture Tabs

Hits: 3701
Rated: 5.00 out of 5 (1 vote)
Updated: 2006-01-07 22:13:11

 

By:

Yura

sendpm.gif

email.gif

Important note
This tab is available online because we obtained explicit permission from Severe Torture or their label.


#----------------------------------PLEASE NOTE---------------------------------#
#This file is the author's own work and represents their interpretation of the #
#song. You may only use this file for private study, scholarship, or research. #
#Unless specified otherwise, this is NOT an official tab from the band members.#
#------------------------------------------------------------------------------#

  Visit MetalTabs.com for more metal tablature
  
Song : MEANT TO SUFFER
Band : SEVERE TORTURE
ALBUM : MISANTHROPIC CARNAGE
Copyright Hammerheart Records 2002

Version 2.0 (January'06)
Transcribed by : Yura Kowalchuk
       contact : yura_kowalchuk@mail.ru
URL: [www.blood-scrapes.nm.ru]

::TABULATURE LEGEND::
 " - tremolo             h - hammer on
 ~ - vibrato             \ - slide down
 p - pull off            / - slide down
 tr - trill              ^ - pinch harmonics
 = - sustained note      b - bend string
 p.m. - palm muting      t - tapping

Tuning is D [D, G, C, F, A, D]

[Riff 1a (x3)]
||---------------------------------------------------||
||o-------------------------------------------------o||
||---------------------------------------------------||
||---------------------------------------------------||
||o-2--3-------2--3-------2--3-------2--3--2"--1"---o||
||--0--1--4tr7-0--1--3tr6-0--1--4tr7-0--1----3"--2"--||
|   .  .       .  .       .  .       .  .             |
||---------------------------------------------------||
||o-------------------------------------------------o||
||---------------------------------------------------||
||---------------------------------------------------||
||o-2--3-------2--3-------2--3-------2--3--2"--1"---o||
||--0--1--4tr7-0--1--3tr6-0--1--4tr7-0--1----3"--2"--||
    .  .       .  .       .  .       .  .

 [outro#1]
 -------------------------------------------------|
 -------------------------------------------------|
 -------------------------------------------------|
 -------------------------------------------------|
 -2--3-------2--3-------2--3-------2--3--2"--1"---|
 -0--1--4tr7-0--1--3tr6-0--1--4tr7-0--1----3"--2"-|
  .  .       .  .       .  .       .  .           |
 -------------------------------------------------|
 -------------------------------------------------|
 -------------------------------------------------|
 ----------------------------------------4"--3"---|
 -2--3-------2--3-------2--3-------2--3----5"--4"-|
 -0--1--4tr7-0--1--3tr6-0--1--4tr7-0--1-----------|
  .  .       .  .       .  .       .  .

[RIFF 1b (x4)]
||-------------------------------------------------||
||o-----------------------------------------------o||
||-------------------------------------------------||
||-------------------------------------------------||
||o-2--3-------2--3-------2--3-----------2"--1"---o||
||--0--1--4tr7-0--1--3tr6-0--1--4tr7-0"1"--3"--2"--||
    .  .       .  .       .  .

[outro #2]
|-------------------------------------------------|
|-------------------------------------------------|
|-------------------------------------------------|
|-------------------------------------------------|
|---------------------------------7"4"-9"6"-10"7"-|
|-0-0-0-6"3"-7"4"-9"6"-[x3]-0-0-0-----------------|
| . . .                     . . .                 |
|-------------------------------------------------|
|-------------------------------------------------|
|-------------------------------------------------|
|-------------------------------------------------|
|-2-2-2---------------------------7"4"-9"6"-10"7"-|
|-0-0-0----------------[x3]-0-0-0-----------------|
  . . .                     . . .

[Riff 2 (x2)]
||---------------------------------------------------||
||o-------------------------------------------------o||
||---------------------------------------------------||
||---------------------------------------------------||
||o---------------------------------7"4"-9"6"-10"7"-o||
||--0-0-0-6"3"-7"4"-9"6"-[x3]-0-0-0------------------||
    . . .                     . . .

[Riff 3]
|-------------------------------------------------|
|-------------------------------------------------|
|-------------------------------------------------|
|-------------------------------------------------|
|---------------------------------4tr7-6tr9-7tr10-|
|-0-0-0-3tr6-4tr7-6tr9-[x3]-0-0-0-----------------|
  . . .                     . . .

[RIFF 2  (x2)]
[RIFF 3 (x2)]

[outro #3]
|---------------------------------------------------|-
|---------------------------------------------------|-
|---------------------------------------------------|-
|---------------------------------------------------|-
|-6-----------6-----------6-----------3h4p3---------|-
|---7-4-7-4-7---4-7-4-7-4---7-4-7-4-7-------3-6-3-6-|-
| . . . . . . . . . . . . . . . . . .       . . . . |
|---------------------------------------------------|-
|---------------------------------------------------|-
|---------------------------------------------------|-
|---------------------------------------------------|-
|-------------------------6-----------3h4p3---------|-
|---------------------------7-4-7-4-7-------3-6-3-6-|-
                          . . . . . .       . . . .

-|---------------------------------------------------|
-|---------------------------------------------------|
-|---------------------------------------------------|
-|---------------------------------------4-----------|
-|-6-----------6-----------6h7p6-----------5-2-5-2-5-|
-|---7-4-7-4-7---4-7-4-7-4-------7-6-9-6-------------|
 | . . . . . . . . . . . .       . . . . . . . . . . |
-|---------------------------------------------------|
-|---------------------------------------------------|
-|---------------------------------------------------|
-|---------------------------------------4-----------|
-|-6-----------6-----------6h7p6-----------5-2-5-2-5-|
-|---7-4-7-4-7---4-7-4-7-4-------7-6-9-6-------------|
   . . . . . . . . . . . .       . . . . . . . . . .

[Riff 4 (x3)]
||----------------------------------------------------|-
||o---------------------------------------------------|-
||----------------------------------------------------|-
||----------------------------------------------------|-
||o-6-----------6-----------6-----------3h4p3---------|-
||----7-4-7-4-7---4-7-4-7-4---7-4-7-4-7-------3-6-3-6-|-
    . . . . . . . . . . . . . . . . . .       . . . .

-|----------------------------------------------------||
-|---------------------------------------------------o||
-|----------------------------------------------------||
-|---------------------------------------4------------||
-|-6-----------6-----------6h7p6-----------5-2-5-2-5-o||
-|---7-4-7-4-7---4-7-4-7-4-------7-6-9-6--------------||
   . . . . . . . . . . . .       . . . . . . . . . .

[Riff 5 (x4)]
||---------------------------------------------------||
||o-------------------------------------------------o||
||---------------------------------------------------||
||--------------4"-----------------------------------||
||o-6"--------------5"--2"--6"------------------4"--o||
||------7"--4"------------------7"--4"--3"--6"-------||

[RIFF 4 (x4)] [RIFF 5 (x4)]

[outro #4]
|----------------------------------------------|
|----------------------------------------------|
|----------------------------------------------|
|-------------4"----------------------------6--|
|-6"--------------5"--2"--6"----------5--8--4--|
|-----7"--4"------------------7"--4"--3--6-----|
                                      .  .

[Riff 6a (x2)]
||----------------------------------------------|-
||o---------------------------------------------|-
||----------------------------------------------|-
||----------------------------------------------|-
||o-5---2--3--6---2--3--5---2--3--3h4p3-6-5-6-8-|-
||--3---0--1--4---0--1--3---0--1--------4-3-4-6-|-
        .  .      .  .      .  .        . . . .

-|---------------------------------------------------||
-|--------------------------------------------------o||
-|---------------------------------------------------||
-|---------------------------------------------------||
-|-5---2--3--6---2--3--3h4p3-6-5-6-8-6h7p6-9-8-9-11-o||
-|-3---0--1--4---0--1--------4-3-4-6-------7-6-7-9---||
       .  .      .  .        . . . .       . . . .

[Riff 6b (x2)]
||----------------------------------------------|-
||o---------------------------------------------|-
||----------------------------------------------|-
||------------^---------------------------------|-
||o-5---2--3--1~--2--3--5---2--3--3h4p3-6-5-6-8-|-
||--3---0--1------0--1--3---0--1--------4-3-4-6-|-
|       .  .      .  .      .  .        . . . . |
||----------------------------------------------|-
||o---------------------------------------------|-
||----------------------------------------------|-
||----------------------------------------------|-
||o-5---2--3--6---2--3--5---2--3--3h4p3-6-5-6-8-|-
||--3---0--1--4---0--1--3---0--1--------4-3-4-6-|-
        .  .      .  .      .  .        . . . .

-|---------------------------------------------------||
-|--------------------------------------------------o||
-|---------------------------------------------------||
-|---------------------------------------------------||
-|-5---2--3--6---2--3--3h4p3-6-5-6-8-6h7p6-9-8-9-11-o||
-|-3---0--1--4---0--1--------4-3-4-6-------7-6-7-9---||
 |     .  .      .  .        . . . .       . . . .    |
-|---------------------------------------------------||
-|--------------------------------------------------o||
-|---------------------------------------------------||
-|---------------------------------------------------||
-|-5---2--3--^---2--3--3h4p3-6-5-6-8-6h7p6-9-8-9-11-o||
-|-3---0--1--4~--0--1--------4-3-4-6-------7-6-7-9---||
       .  .      .  .        . . . .       . . . .

[RIFF 2 (x2)] [RIFF 3] [RIFF 2 (x2)]

END OF SONG

  Visit MetalTabs.com for more metal tablature

bottom separator

Contact Us | Privacy Policy | Disclaimer | Legal Notice
Copyright © 2001-2014 MetalTabs.com. All Rights Reserved.