top separator

Home

Forum

FAQ

Contact Us

Link to Us

MetalTabs.com logo

Bands

0-9

A

B

C

D

E

F

G

H

I

J

K

L

M

N

O

P

Q

R

S

T

U

V

W

X

Y

Z

Cradle of Filth - "Mother of Abominations" Guitar Tab

Plain Text Version
More Cradle of Filth Tabs

Hits: 2419
Rated: 4.67 out of 5 (3 votes)
Updated: 2006-01-07 22:11:49

By:

Robbie Filth


#----------------------------------PLEASE NOTE---------------------------------#
#This file is the author's own work and represents their interpretation of the #
#song. You may only use this file for private study, scholarship, or research. #
#Unless specified otherwise, this is NOT an official tab from the band members.#
#------------------------------------------------------------------------------#

  Visit MetalTabs.com for more metal tablature
  
Band: Cradle of Filth
Album: Nymphetamine
Song: Mother of Abominations
Record Label: Roadrunner Records
Tuning:  D G C F A D

-----------------------------------------
-----------------------------------------
-----7-------7--------10--------8-----9--
---7---7---7---7---10----10---8-----9----
-5-------5-------8----------6-----7------
-----------------------------------------X4
 trem...................................

------------------------------------------
------------------------------------------
------------------------------------------
------------------------------------------
-4--4--4--2--5----4-444-4-444----4--------
-2--2--2--0--3----2-222-2-222-333--3336---
                     pm.   ... ...  ...

-------------------------------------
-------------------------------------
-------------------------------------
-------------------------------------
-4-444-4-444-4-2-5----------2--------
-2-222-2-222-2-0-3--1-4-3-4---4-3-4--
   pm.   ...       trem.............

-------------------------------------------------------------------
-------------------------------------------------------------------
-------------------------------------------------------------------
-------------------------------------------------------------------
-4-444-4-444-4-2-5----4--------4-444-4-444-4-2-5----------2--------
-2-222-2-222-2-0-3-333--3336---2-222-2-222-2-0-3--1-4-3-4---4-3-4--
   pm.   ...       ...  ...      ...   ...       trem.............

-----------------------------------------
-----------------------------------------
-----7-------7--------10--------8-----9--
---7---7---7---7---10----10---8-----9----
-5-------5-------8----------6-----7------
-----------------------------------------X4
 trem...................................


------------------------------------------
------------------------------------------
------------------------------------------
------------------------------------------
-4--4--4--2--5----4-444-4-444----4--------
-2--2--2--0--3----2-222-2-222-333--3336---
                     pm.   ... ...  ...

-------------------------------------
-------------------------------------
-------------------------------------
-------------------------------------
-4-444-4-444-4-2-5----------2--------
-2-222-2-222-2-0-3--1-4-3-4---4-3-4--
   pm.   ...       trem.............

-------------------------------------------------------------------
-------------------------------------------------------------------
-------------------------------------------------------------------
-------------------------------------------------------------------
-4-444-4-444-4-2-5----4--------4-444-4-444-4-2-5----------2--------
-2-222-2-222-2-0-3-333--3336---2-222-2-222-2-0-3--1-4-3-4---4-3-4--
   pm.   ...       ...  ...      ...   ...       trem.............

----------------------------------------------------------
----------------------------------------------------------
----------------------------------------------------------
-------------------------9-8------------------------------
-9--8/9\8--7/8\7--6/7\6--7-6----9--8/9\8--7/8\7--3-3-4-4--
-7--6/7\6--5/6\5--4/5\4---------7--6/7\6--5/6\5--1-1-2-2--X2

guitar left channel

play this 1st and 3rd time
------------------------------------------------------
------------------------------------------------------
------------------------------------------------6-4-6-
-------------------------------------6-9-8-9--4-------
-4-6-4-6-7--6-7-6-4--6-4-6-7--6-7-6-------------------
------------------------------------------------------

play this 2nd and 4th time
------------------------------------------------------
------------------------------------------------------
---------------------------------------6-4-6----7-6-7-
-------------------------------------6--------4-------
-4-6-4-6-7--6-7-6-4--6-4-6-7--6-7-6-------------------
------------------------------------------------------

guitar right channel

play this the 1st and 3rd time
------------------------------------------------------
------------------------------------------------------
------------------------------------------------------
---------------------------------------6-4-6----7-6-7-
-4-6-4-6-7--6-7-6-4--6-4-6-7--6-7-6--7--------6-------
------------------------------------------------------

play this 2nd and 4th time
------------------------------------------------------
------------------------------------------------------
------------------------------------------------------
---------------------------------------7-6-7----9-7-9-
-4-6-4-6-7--6-7-6-4--6-4-6-7--6-7-6--7--------6-------
------------------------------------------------------

Both Guitars

----------------------------------------------------------------------
----------------------------------------------------------------------
----------------------------------------------------------------------
----------------------------------------------------------------------
-3-3-3-3-3-3-3-3-6-6-6-5/6\5-5-6-6---3-3-3-3-3-3-3-3-3-6-2-5-3-6-2-5--
-1-1-1-1-1-1-1-1-4-4-4-3/4\3-3-4-4---1-1-1-1-1-1-1-1------------------
 trem...............................................

-------------------------------------------------------------
-------------------------------------------------------------
-------------------------------------------------------------
-----------------------------------------------------10-9-8--
-3-3-3-3-3-3-3-3-6-6-6-5/6\5-5-6-6---3-3-3-3-3-3-3-3--8-7-6--
-1-1-1-1-1-1-1-1-4-4-4-3/4\3-3-4-4---1-1-1-1-1-1-1-1--8-7-6--
 trem...............................................

-----------------------------------------
-----------------------------------------
-----7-------7--------10--------8-----9--
---7---7---7---7---10----10---8-----9----
-5-------5-------8----------6-----7------
-----------------------------------------X4
 trem...................................

------------------------------------------
------------------------------------------
------------------------------------------
------------------------------------------
-4--4--4--2--5----4-444-4-444----4--------
-2--2--2--0--3----2-222-2-222-333--3336---
                     pm.   ... ...  ...

-------------------------------------
-------------------------------------
-------------------------------------
-------------------------------------
-4-444-4-444-4-2-5----------2--------
-2-222-2-222-2-0-3--1-4-3-4---4-3-4--
   pm.   ...       trem.............

-------------------------------------------------------------------
-------------------------------------------------------------------
-------------------------------------------------------------------
-------------------------------------------------------------------
-4-444-4-444-4-2-5----4--------4-444-4-444-4-2-5----------2--------
-2-222-2-222-2-0-3-333--3336---2-222-2-222-2-0-3--1-4-3-4---4-3-4--
   pm.   ...       ...  ...      ...   ...       trem.............

----------------------------------------------------------
----------------------------------------------------------
----------------------------------------------------------
-------------------------9-8------------------------------
-9--8/9\8--7/8\7--6/7\6--7-6----9--8/9\8--7/8\7--3-3-4-4--
-7--6/7\6--5/6\5--4/5\4---------7--6/7\6--5/6\5--1-1-2-2--X2

guitar left channel

play this 1st and 3rd time
------------------------------------------------------
------------------------------------------------------
------------------------------------------------6-4-6-
-------------------------------------6-9-8-9--4-------
-4-6-4-6-7--6-7-6-4--6-4-6-7--6-7-6-------------------
------------------------------------------------------

play this 2nd and 4th time
------------------------------------------------------
------------------------------------------------------
---------------------------------------6-4-6----7-6-7-
-------------------------------------6--------4-------
-4-6-4-6-7--6-7-6-4--6-4-6-7--6-7-6-------------------
------------------------------------------------------

guitar right channel

play this the 1st and 3rd time
------------------------------------------------------
------------------------------------------------------
------------------------------------------------------
---------------------------------------6-4-6----7-6-7-
-4-6-4-6-7--6-7-6-4--6-4-6-7--6-7-6--7--------6-------
------------------------------------------------------

play this 2nd and 4th time
------------------------------------------------------
------------------------------------------------------
------------------------------------------------------
---------------------------------------7-6-7----9-7-9-
-4-6-4-6-7--6-7-6-4--6-4-6-7--6-7-6--7--------6-------
------------------------------------------------------

Both Guitars

----------------------------------------------------------------------
----------------------------------------------------------------------
----------------------------------------------------------------------
----------------------------------------------------------------------
-3-3-3-3-3-3-3-3-6-6-6-5/6\5-5-6-6---3-3-3-3-3-3-3-3-3-6-2-5-3-6-2-5--
-1-1-1-1-1-1-1-1-4-4-4-3/4\3-3-4-4---1-1-1-1-1-1-1-1------------------
 trem...............................................

----------------------------------------------------------------------
----------------------------------------------------------------------
----------------------------------------------------------------------
-----------------------------------------------------10-9-8-10-9-8-2--
-3-3-3-3-3-3-3-3-6-6-6-5/6\5-5-6-6---3-3-3-3-3-3-3-3--8-7-6--8-7-6-2--
-1-1-1-1-1-1-1-1-4-4-4-3/4\3-3-4-4---1-1-1-1-1-1-1-1--8-7-6--8-7-6-0--
 trem...............................................               let ring

Keyboard Break.

-------------------------------------------------------------------------------
-------------------------------------------------------------------------------
-------------------------------------------------------------------------------
-11\\\\-------------------11-11-10-------------------10-10-9-------------------
--9\\\\-222-2-222-2-2-2-2--9--9--8-888-8-888-8-8-8-8--8--8-7-555-5-555-5-5-5-5-
--------000-0-000-0-0-0-0----------666-6-666-6-6-6-6---------333-3-333-3-3-3-3-

--------------------------
--------------------------
--------------------------
-9-9-8--------------------
-7-7-6-333-3-333-3-3-3-3--
-------111-1-111-1-1-1-1-- continued from above

--------------------------------------------------------------------------------
--------------------------------------------------------------------------------
--------------------------------------------------------------------------------
-7-12-11-------------------11-11-10-------------------10-10-9-------------------
-5-10--9-222-2-222-2-2-2-2--9--9--8-888-8-888-8-8-8-8--8--8-7-555-5-555-5-5-5-5-
---------000-0-000-0-0-0-0------------666-6-666-6-6-6-6-------333-3-333-3-3-3-3-

--------------------------
--------------------------
--------------------------
-9-9-8--------------------
-7-7-6-333-3-333-3-3-3-3--
-------111-1-111-1-1-1-1-- continued from above

--------------------------------------------------------------------------------
--------------------------------------------------------------------------------
--------------------------------------------------------------------------------
-7-12-11-------------------11-11-10-------------------10-10-9-------------------
-5-10--9-222-2-222-2-2-2-2--9--9--8-888-8-888-8-8-8-8--8--8-7-555-5-555-5-5-5-5-
---------000-0-000-0-0-0-0------------666-6-666-6-6-6-6-------333-3-333-3-3-3-3-

--------------------------
--------------------------
--------------------------
-9-9-8--------------------
-7-7-6-333-3-333-3-3-3-3--
-------111-1-111-1-1-1-1-- continued from above

Song starts to fade out now.
--------------------------------------------------------------------------------
--------------------------------------------------------------------------------
--------------------------------------------------------------------------------
-7-12-11-------------------11-11-10-------------------10-10-9-------------------
-5-10--9-222-2-222-2-2-2-2--9--9--8-888-8-888-8-8-8-8--8--8-7-555-5-555-5-5-5-5-
---------000-0-000-0-0-0-0------------666-6-666-6-6-6-6-------333-3-333-3-3-3-3-

--------------------------
--------------------------
--------------------------
-9-9-8--------------------
-7-7-6-333-3-333-3-3-3-3--
-------111-1-111-1-1-1-1-- continued from above

--------------------------------------------------------------------------------
--------------------------------------------------------------------------------
--------------------------------------------------------------------------------
-7-12-11-------------------11-11-10-------------------10-10-9-------------------
-5-10--9-222-2-222-2-2-2-2--9--9--8-888-8-888-8-8-8-8--8--8-7-555-5-555-5-5-5-5-
---------000-0-000-0-0-0-0------------666-6-666-6-6-6-6-------333-3-333-3-3-3-3-

--------------------------
--------------------------
--------------------------
-9-9-8--------------------
-7-7-6-333-3-333-3-3-3-3--
-------111-1-111-1-1-1-1-- continued from above

--------------------------------------------------------------------------------
--------------------------------------------------------------------------------
--------------------------------------------------------------------------------
-7-12-11-------------------11-11-10-------------------10-10-9-------------------
-5-10--9-222-2-222-2-2-2-2--9--9--8-888-8-888-8-8-8-8--8--8-7-555-5-555-5-5-5-5-
---------000-0-000-0-0-0-0------------666-6-666-6-6-6-6-------333-3-333-3-3-3-3-

--------------------------
--------------------------
--------------------------
-9-9-8--------------------
-7-7-6-333-3-333-3-3-3-3--
-------111-1-111-1-1-1-1-- continued from above


THE END

Guitar Harmony worked out by Kiem of the Netherlands

Any corrections mail them to: septic_flesh241@hotmail.com

  Visit MetalTabs.com for more metal tablature

bottom separator

Contact Us | Privacy Policy | Disclaimer
Copyright © 2001-2014 MetalTabs.com. All Rights Reserved.