top separator

Home

Forum

What's New

Submit a Tab

FAQ

Links

Contact Us

Link to Us

MuSpy.com

MetalTabs.com logo

Bands

0-9

A

B

C

D

E

F

G

H

I

J

K

L

M

N

O

P

Q

R

S

T

U

V

W

X

Y

Z

Search

What

Where
 

Malevolent Creation - "Halved" Guitar Tab

Plain Text Version
More Malevolent Creation Tabs

Hits: 2866
Rated: 4.00 out of 5 (4 votes)
Updated: 2006-01-28 19:59:07

 

By:

travI56669

sendpm.gif

email.gif

Important note
This tab is available online because we obtained explicit permission from Malevolent Creation or their label.


#----------------------------------PLEASE NOTE---------------------------------#
#This file is the author's own work and represents their interpretation of the #
#song. You may only use this file for private study, scholarship, or research. #
#Unless specified otherwise, this is NOT an official tab from the band members.#
#------------------------------------------------------------------------------#

  Visit MetalTabs.com for more metal tablature
  
Band:  Malevolent Creation
Album: Envenomed
Song:  Halved
Version 1 - 1/14/06
Transcribed By: travI56669
Email: marilynmaggot@yahoo.com

.  - palm mute           /  - slide up to
\  - slide down to       ~  - vibrato
h  - hammer on           b  - Bend
p  - pull off            Suffixes for bend
t  - tap                 f  - full bend    h - half bend
ph - pinched harmonic    q  - quarter bend t - tap bend
*  - see comment         ^  - Hold bend    r release bend
x  - Stuccatto           ~  - vibrato bend
,  - slight palm mute    () - ghost note, sustained note
"  - tremolo note        <> - Trill
Both guitars - C# F# B E G# C#

Be sure to rate this tab and e-mail
me with comments or corrections...
Guitar II plays the endings with
open powerchords in between on the intro...
                         Different Endings for Main Riff
 Main Riff               1.3.5.7.   2.6.     4.               8.
|-(0)----(0)---(0)------|--------|--------|-----------------|-----------------|
|---(0)----(0)---(0)----|--------|--------|-----------------|-----------------|
|-----(3)----(3)---(3)--|--------|--------|-----------------|-----------------|
|-----------------------|--------|--------|-9--8------------|-----------------|
|-----------------------|-3-3-3--|-3-6-5--|-7--6--9--3-6-5--|-6--5--2--3-6-5--|
|-----------------------|-1-1-1--|-1-4-3--|-------7--1-4-3--|-4--3--0--1-4-3--|
 Verse Riff               . . .    . . .             . . .             . . .
|-Ending_1_--------------------------------------------------------|
|------------------------------------------------------------------|
|------------------------------------------------------------------|
|-----------------------6/5---7--10\9-------------------6/5--------|
|-3\2-------------9/8---4/3---5---8\7-------------9/8---4/3---5----|
|-1p0-0-0-0-0-0-0-7/6-0-----0---0-----0-0-0-0-0-0-7/6-0-----0-3-0--|
      . . . . . .     .     .   .     . . . . . .     .     . . .
|-Ending_2_--------------------------------------------------------------|
|------------------------------------------------------------------------|
|------------------------------------------------------------------------|
|-----------------------6/5---7--10/9------------------------------------|
|-3\2-------------9/8---4/3---5---8/7-------------77777777788888888810"--|
|-1p0-0-0-0-0-0-0-7/6-0-----0---0-----0-0-0-0-0-0------------------------|
      . . . . . .     .     .   .     . . . . . .
|-Ending_3_--------------------------------------------------------|Ending 1 5X
|------------------------------------------------------------------|Ending 2 1X
|------------------------------------------------------------------|Ending 1 1X
|-----------------------6/5---7--10\9-------------------6/5--------|Ending 2 1X
|-3\2-------------9/8---4/3---5---8\7-------------9/8---4/3---5----|Ending 3 2X
|-1p0-00000000000-7/6-0-----0---0-----00000000000-7/6-0-----0-3-0--|
      ...........     .     .   .     ...........     .     . . .
|-----------------------------------------------------------------------|
|-----------------------------------------------------------------------|
|-----------------------------------------------------------------------|
|-----------------------6/5---7--10/9-----------------------------------|
|-3\2-------------9/8---4/3---5---8/7------------77777777788888888810"--|
|-1p0-00000000000-7/6-0-----0---0-----00000000000-----------------------|
      ...........     .     .   .     ...........
Chorus
|--------------------------------------------------------------------|
|--------------------------------------------------------------------|
|--------------------------------------------------------------------|
|--------------------------------------------------------------------|
|-2222222222222----------------3333333333333---------55555555555555--|
|--------------3-2-0-5-3-2-0-3--------------444444444----------------|
               . . . . . . . .
*  - Guitar I plays these notes
|--------------------------------------------------------------------|
|--------------------------------------------------------------------|
|-*************----------------************************************--|
|-4444444444444----------------555555555555588888888877777777777777--|
|-2222222222222----------------333333333333366666666655555555555555--|
|--------------3-2-0-5-3-2-0-3---------------------------------------|
2nd Verse Riff . . . . . . . .
|-----------------------------|
|-----------------------------|
|-----------------------------|
|-----------------------------|
|----------------------6-5-3--|
|-33333333333333333333-4-3-1--|
Breakdown              . .
|---------------------------------------------------------------------|
|---------------------------------------------------------------------|
|---------------------------------------------------------------------|
|---------------------------------------------------------------------|
|-----------------7-10-8--8-11-10------------------9-12-10--10-13-12--|
|-000000000000000------------------000000000000000--------------------|
  ...............                  ...............
After playing the breakdown 4 times Guitar II plays this
|------------------------------------------------------------------------|
|------------------------------------------------------------------------|
|------------------------------------------------------------------------|
|------------------------------------------------------------------------|
|-----------------10-13-11--11-14-13-----------------12-15-13--13-16-15--|
|-000000000000000--------------------000000000000000---------------------|
  ...............                    ...............
END

  Visit MetalTabs.com for more metal tablature

bottom separator

Contact Us | Privacy Policy | Disclaimer | Legal Notice
Copyright © 2001-2014 MetalTabs.com. All Rights Reserved.