top separator

Home

Forum

What's New

Submit a Tab

FAQ

Links

Contact Us

Link to Us

MuSpy.com

MetalTabs.com logo

Bands

0-9

A

B

C

D

E

F

G

H

I

J

K

L

M

N

O

P

Q

R

S

T

U

V

W

X

Y

Z

Search

What

Where
 

Tu Carne - "Esta Extrana Pasion" Guitar Tab

Plain Text Version
More Tu Carne Tabs

Hits: 2956
Updated: 2006-01-07 22:09:00

 

By:

Cunty Shunt

sendpm.gif

email.gif

Important note
This tab is available online because we obtained explicit permission from Tu Carne or their label.


#----------------------------------PLEASE NOTE---------------------------------#
#This file is the author's own work and represents their interpretation of the #
#song. You may only use this file for private study, scholarship, or research. #
#Unless specified otherwise, this is NOT an official tab from the band members.#
#------------------------------------------------------------------------------#

  Visit MetalTabs.com for more metal tablature
  
Band:  (Tu Carne)
Album: (Me Quedo Con Tu Dolor!)
Song:  (Esta Extraña Pasion)

Copyright (c)  (Bizarre Leprous) (2002)
Version 1.0 - (01-06)

Transcribed By: (Jim Haras)
Email:          (jimharas@yahoo.com)


.  - palm mute           /  - slide up to
\  - slide down to       ~  - vibrato
h  - hammer on           b  - Bend
p  - pull off            Suffixes for bend
t  - tap                 f  - full bend    h - half bend
ph - pinched harmonic    q  - quarter bend t - tap bend
*  - see comment         ^  - Hold bend    r release bend
x  - Stuccatto           ~  - vibrato bend
,  - slight palm mute    () - ghost note, sustained note
"  - tremolo note        <> - Trill

Tuning B E A D F# B

Riff 1
|-----------------------------|-------------------------------------|
|-----------------------------|-------------------------------------|
|-----------------------------|-------------------------------------|
|-----------------------------|-------------------------------------| x 3
|--9-8-7---9-8-7---9-8-11--7--|--9-8-7---9-8-7---9-8-11--7--8-------|
|--7-6-5---7-6-5---7-6-9---5--|--7-6-5---7-6-5---7-6-9---5--6-------|

Riff 2
|--------------------|----------------------------------------------|
|--------------------|----------------------------------------------|
|--------------------|----------------------------------------------|
|--------------------|----------------------------------------------|X 4
|--7"--8"--9"--11"---|--7"--11"--10"--9"----------------------------|
|--5"--6"--7"--9-"---|--5"--9-"--8-"--7"----------------------------|

Riff 3
|-------------------|-----------------------------------------------|
|-------------------|-----------------------------------------------|
|-------------------|-----------------------------------------------|
|-------------------|-----------------------------------------------|X 2
|--7-9-7-9-7--9999--|--7-9-7-9-7--99--------------------------------|
|--5-7-5-7-5--------|--5-7-5-7-5----79------------------------------|

Riff 4
|----------------------|--------------------------------------------|
|----------------------|--------------------------------------------|
|----------------------|--------------------------------------------|
|----------------------|--------------------------------------------|X 4
|--11-11-10-10-9-9-8-8-|--7-7-8-8-9-10-11-10------------------------|
|--9--9--8--8--7-7-6-6-|--5-5-6-6-7-8--9--8-------------------------|

Riff 5
|-------------------------------------------------------------------|
|-------------------------------------------------------------------|
|-------------------------------------------------------------------|
|-------------------------------------------------------------------|x 4
|--8-7-9-8-10-9-11-10-----------------------------------------------|
|--6-5-7-6-8--7-9--8------------------------------------------------|

Riff 6
|------------|-------------|
|------------|-------------|
|------------|-------------|
|------------|-------------| Riff 1 (x 4)
|--7---------|---9---------| *note only bass plays first
|--5---------|---7---------|  measure of Riff 1 here.
   x             let ring

Riff 5 (x 4)
Riff 3 (x 2)

Riff 7
|----------------------------|--------------------------------------|
|----------------------------|--------------------------------------|
|----------------------------|--------------------------------------|
|----------------------------|--------------------------------------|x 2
|--7--8-7-8\7/8-10--7-8-7-6--|--7--8-7--10--9-8-7--9-8-7------------|
|--5--6-5-6\5/6-8---5-6-5-4--|--5--6-5--8---7-6-5--7-6-5------------|

Riff 8
|-------------------------------------|
|-------------------------------------|
|-------------------------------------|
|-------------------------------------|
|--7"--8"-7"-8\7/8"-10"--7"-8"-7"-6"--|
|--5"--6"-5"-6\5/6"-8-"--5"-6"-5"-4"--|

Riff 8 (con't)
|--------------------------------------|
|--------------------------------------|
|--------------------------------------|
|--------------------------------------|x 2
|--7"--8"-7"--10"--9-8-7--9-8-7--------|
|--5"--6"-5"--8-"--7-6-5--7-6-5--------|

END

  Visit MetalTabs.com for more metal tablature

bottom separator

Contact Us | Privacy Policy | Disclaimer | Legal Notice
Copyright © 2001-2014 MetalTabs.com. All Rights Reserved.