top separator

Home

Forum

What's New

Submit a Tab

FAQ

Links

Contact Us

Link to Us

MuSpy.com

MetalTabs.com logo

Bands

0-9

A

B

C

D

E

F

G

H

I

J

K

L

M

N

O

P

Q

R

S

T

U

V

W

X

Y

Z

Search

What

Where
 

Samael - "Moongate" Guitar Tab

Plain Text Version
More Samael Tabs

Hits: 3594
Updated: 2008-04-07 08:38:51

 

By:

sendpm.gif

email.gif

Important note
This tab is available online because we obtained explicit permission from Samael or their label.


#----------------------------------PLEASE NOTE---------------------------------#
#This file is the author's own work and represents their interpretation of the #
#song. You may only use this file for private study, scholarship, or research. #
#Unless specified otherwise, this is NOT an official tab from the band members.#
#------------------------------------------------------------------------------#

  Visit MetalTabs.com for more metal tablature
  
Band: Samael
Album: Reign of Light
Song: Moongate

Copyright (c) Regain Records 2004
Version 1.3 - 05.04.08

Transcribed By: eRyahXa0S/Darth Wojtex
Email: darthwojtex@interia.pl

~ vibrato
b - bend
ah/nh - harmonics
ps - pick slide
/ - slide
h - hammer on
p - pull of
x - dead note

Tuning D A F C G D (1 step down)

intro - sitar x 2

|---12------------12--------|
|------8-10-12------12-10-8-|
|-9-------------9-----------|
|---------------------------|
|---------------------------|
|---------------------------|

guitar riff 1 x3

|---------------------|
|---------------------|
|---------------9-8-9-|
|-\-2-----------------|
|-\-2-xxxxx-x-x-7-6-7-|
|-\-0-xxxxx-x-x-------|

 riff 1a

|---------------------|
|---------------------|
|---------9-8-9-9-8-9-|
|---------------------|
|-2-xxxxx-7-6-7-7-6-7-|
|-0-xxxxx-------------|

riff 2 x2

|----------------------------------|
|----------------------------------|
|----------------------------------|
|-999977771010101010101010---------|
|-77775555-------------------------|
|---------8-8-8-8-8-8-8-8-8h10-7p8-|

bass part + sitar (during last reapeat 2 slides on guitar)

|--------------------------------|
|------8-1010/12-12-12-10-8------|
|-9-9--------------------------9-|
|--------------------------------|
|--------------------------------|
|--------------------------------|

riff 3 x4 (it's also in the background during bass part and sitar)

|------------------|
|------------------|
|------------------|
|-2-2--------------|
|-2-2--------------|
|-0-0-335577777532-|

riff 2 x4

|----------------------------------|
|----------------------------------|
|----------------------------------|
|-999977771010101010101010---------|
|-77775555-------------------------|
|---------8-8-8-8-8-8-8-8-8h10-7p8-|

riff 4 x3

|-------------------------------------------------|
|-------------------------------------------------|
|--\-99999999-------------------------------------|
|--\-99999999101010101010101099999999-------------|
|p-\-77777777101010101010101099999999-------------|
|s-------------8-8-8-8-8-8-8-877777777-8h10p8/7-8-|
riff 4a

|---------------------------------------------------|
|---------------------------------------------------|
|--\-99999999---------------------------------------|
|--\-99999999101010101010101099999999-----------2-2-|
|p-\-77777777101010101010101099999999-----------2-2-|
|s-----------8-8-8-8-8-8-8-877777777-8h10p8/7-8-0-0-|

riff 5 x3

|------------------|
|------------------|
|------------9-8-9-|
|-\-2--------------|
|-\-2--------7-6-7-|
|-\-0-335577-------|

riff 5b x1

|------------|
|------------|
|------------|
|-\-2--------|
|-\-2--------|
|-\-0-335577-|

key part (guitar fading in)

|--------------------------------------------------------------|
|--------------------------------------------------------------|
|-9-------9-9-9-9-999977777777777777775555555555555555---------|
|---------1010101099997777777799997777777777775555777722222222-|
|-7-------7-7-7-7-77775555555555555555333333333333333322222222-|
|-00000000--------------------------------------------00000000-|

riff 2 x2

|-------------------------------------|
|-------------------------------------|
|-------------------------------------|
|-999977771010101010101010------------|
|-77775555----------------------------|
|------------8-8-8-8-8-8-8-8-8h10-7p8-|

riff 4 x3

|------------------------------------------------|
|------------------------------------------------|
|--\-99999999------------------------------------|
|--\-99999999101010101010101099999999------------|
|p-\-77777777101010101010101099999999------------|
|s-----------8-8-8-8-8-8-8-8-77777777-8h10p8/7-8-|

riff 4a

|-----------------------------------------------------|
|-----------------------------------------------------|
|--\-99999999-----------------------------------------|
|--\-99999999101010101010101099999999-------------2-2-|
|p-\-77777777101010101010101099999999-------------2-2-|
|s-------------8-8-8-8-8-8-8-877777777-8h10p8/7-8-0-0-|

sitar riff 3 x4

|--12------11--------------------------------
|------------------13------12------10------9-
|------9-9-----9-9-----9-9-----9-9-----9-9---
|--------------------------------------------
|--------------------------------------------
|--------------------------------------------

--12------11--------------------------------|
------------------13------12------10--------|
------9-9-----9-9-----9-9-----9-9-----9-9-9-|
--------------------------------------------|
--------------------------------------------|
--------------------------------------------|
riff 6 x 8

|-----------------------------|
|-----------------------------|
|-----------------------------|
|-----------------------------|
|-2-x-2-x-2-x-x-x-x-x-x-x-x-x-|
|-0-x-0-x-0-x-x-x-x-x-x-x-x-x-|


lead 1 (tremolo)

|---------------------------5~------4~---------------------------5~------7~-|
|-3~------1~--0~----1~-----------------3~------1~--0~----1~-----------------|
|---------------------------------------------------------------------------|
|---------------------------------------------------------------------------|
|---------------------------------------------------------------------------|
|---------------------------------------------------------------------------|

sitar x 2

|---12------------12--------|
|------8-10-12------12-10-8-|
|-9-------------9-----------|
|---------------------------|
|---------------------------|
|---------------------------|

sitar 2 riff x 2

|----------------------------|
|-----8-1010/12-12-12-10-8---|
|-9-9----------------------9-|
|----------------------------|
|----------------------------|
|----------------------------|

key part

riff 4 x 4

|-------------------------------------------------|
|-------------------------------------------------|
|--\-99999999-------------------------------------|
|--\-99999999101010101010101099999999-------------|
|p-\-77777777101010101010101099999999-------------|
|s-------------8-8-8-8-8-8-8-877777777-8h10p8/7-8-|

riff 8 x4

|-----------------|
|-----------------|
|-----------------|
|------2222224444-|
|-222223333332222-|
|-00000-----------|

lead 2 x2

|-----------------------------------------------|
|---1010/12-12/131313121210-10-12-1010-12121212-|
|-9---------------------------------------------|
|-----------------------------------------------|
|-----------------------------------------------|
|-----------------------------------------------|

end

|---|
|---|
|---|
|-2-|
|-2-|
|-0-|

  Visit MetalTabs.com for more metal tablature

bottom separator

Contact Us | Privacy Policy | Disclaimer | Legal Notice
Copyright © 2001-2014 MetalTabs.com. All Rights Reserved.