top separator

Home

Forum

What's New

Submit a Tab

FAQ

Links

Contact Us

Link to Us

MuSpy.com

MetalTabs.com logo

Bands

0-9

A

B

C

D

E

F

G

H

I

J

K

L

M

N

O

P

Q

R

S

T

U

V

W

X

Y

Z

Search

What

Where
 

Darkthrone - "Inn I De Dype Skogers" Guitar Tab

Plain Text Version
More Darkthrone Tabs

Hits: 2696
Rated: 2.00 out of 5 (1 vote)
Updated: 2006-01-07 22:03:24

 

By:

sendpm.gif

email.gif

Important note
This tab is available online because we obtained explicit permission from Darkthrone or their label.


#----------------------------------PLEASE NOTE---------------------------------#
#This file is the author's own work and represents their interpretation of the #
#song. You may only use this file for private study, scholarship, or research. #
#Unless specified otherwise, this is NOT an official tab from the band members.#
#------------------------------------------------------------------------------#

  Visit MetalTabs.com for more metal tablature
  
Band:  Darkthrone
Album: Under funeral moon
Song:  Inn i de dype skogers

Copyright (c)  peaceville 1993
Version 1.0 - 2004

Transcribed By: necrologstis XIV
Email:          vatalan@hotmail.com


.  - palm mute           /  - slide up to
\  - slide down to       ~  - vibrato
h  - hammer on           b  - Bend
p  - pull off            Suffixes for bend
t  - tap                 f  - full bend    h - half bend
ph - pinched harmonic    q  - quarter bend t - tap bend
*  - see comment         ^  - Hold bend    r release bend
x  - Stuccatto           ~  - vibrato bend
,  - slight palm mute    () - ghost note, sustained note
"  - tremolo note        <> - Trill

Tuning E A D G B E (normal tune)

Q=140 approximativly.

* = x8

|----|
|----|
|----|
|-7--|
|-7--|
|----|


RIFF Fjell

((((x4))+x4)  (1st time) (2nd time)
|----------|-----------:|------------------------|
|----------|-----------:|------------------------|
|----------|-----------:|------------------------|
|----------|-----------:|------------------------|
|-8--8--77-|-8--8--98--:|-8--8--9999--888-777----|
|-6--6--66-|-6--6--66--:|-6--6--7777--666-555----|
  *  *       *  *         *  *
            Det garr en vei over fjellet...



((((x4)+x4))  (1st time) (2nd time) (ear the ride cymbal at the beg)
|----------|-----------:|---------------------|
|----------|-----------:|---------------------|
|----------|-----------:|---------------------|
|----------|-----------:|---------------------|
|-8--8--77-|-8--8--98--:|-8--8--9999--888-(88)|
|-6--6--56-|-6--6--66--:|-6--6--7777--666-(66)|
  *  *       *  *         *  *

RIFF Langsom vandring (2'09)
 (X8)
|-----------------------------------------------------------| |----|
|-----------------------------------------------------------| |----|
|-----------------------------------------------------------| |----|
|-----------------------------------------------------------| |----|
|-4-5-5-5-5--5--4-5-5-5-5--5--5-5-5-5-5--5--4-5-5-6-6-6-6---| |--8-|
|-2-3-3-3-3--3--2-3-3-3-3--3--2-3-3-3-3--3--2-3-3-4-4-4-4---| |--5-|
                                                  . . . .
Gjorde huden veik under en norron himmel...

Then , play :RIFF Fjell
Then play (x8) RIFF Langsom vandring , watch out the tempo variata on
 the last 4 times befor end.
|-------------------------------------------------------------------|
|-------------------------------------------------------------------|
|-------------------------------------------------------------------|
|-------------------------------------------------------------------|
|-4--5-5-5-5--5--5--5-5-5-5--5--3--5-5-5-5--5--5--5-5--6-6-6-6------|
|-2--3-3-3-3--3--2--3-3-3-3--3--2--3-3-3-3--3--2--3-3--3-3-3-3------|
                                                       . . . .
For aa finde en gard ...

  Visit MetalTabs.com for more metal tablature

bottom separator

Contact Us | Privacy Policy | Disclaimer | Legal Notice
Copyright © 2001-2014 MetalTabs.com. All Rights Reserved.