top separator

Home

Forum

What's New

Submit a Tab

FAQ

Links

Contact Us

Link to Us

MetalTabs.com logo

Bands

0-9

A

B

C

D

E

F

G

H

I

J

K

L

M

N

O

P

Q

R

S

T

U

V

W

X

Y

Z

Search

What

Where
 

Napalm Death - "Suffer the Children" Bass Tab

Plain Text Version
More Napalm Death Tabs

Hits: 5126
Rated: 5.00 out of 5 (1 vote)
Updated: 2006-08-18 03:43:56

 

By:

SolothurN

sendpm.gif

email.gif

Important note
This tab is available online because we obtained explicit permission from Napalm Death or their label.


#----------------------------------PLEASE NOTE---------------------------------#
#This file is the author's own work and represents their interpretation of the #
#song. You may only use this file for private study, scholarship, or research. #
#Unless specified otherwise, this is NOT an official tab from the band members.#
#------------------------------------------------------------------------------#

  Visit MetalTabs.com for more metal tablature
  
Napalm Death - Suffer The Children (Harmony Corruption)
Copyright (c) EARACHE RECORDS 1990

Tab author: SolothurN
email: solothurn@wp.pl

.  - palm mute           /  - slide up to
  - slide down to       ~  - vibrato
h  - hammer on           b  - Bend
p  - pull off            Suffixes for bend
t  - tap                 f  - full bend    h - half bend
ph - pinched harmonic    q  - quarter bend t - tap bend
*  - see comment         ^  - Hold bend    r release bend
x  - Stuccatto           ~  - vibrato bend
,  - slight palm mute    () - ghost note, sustained note
"  - tremolo note        <> - Trill

Tuning: D G C F

Riff 1
|-----------------------------|----------------------------|
|-----------------------------|----------------------------|
|----------------1------------|-4-------------1--4---------|
|--1--0-0-0-0-0-----0-0-0-0-0-|----0-0-0-0-0--------4--3---|

|-----------------------------|----------------------------|
|-----------------------------|----------------------------|
|----------------1------------|-4-------------7--6---------|
|--1--0-0-0-0-0-----0-0-0-0-0-|----0-0-0-0-0--------3--4---|
Riff 2
|---------------------------------|------------------------------|
|---------------------------------|------------------------------|
|---------------------------------|------------------------------|
|--1--0-0-0-0-0-0-0-0-0-0-0-0-0-0-|-1--0-0-0-0-0-0--3/4---3/4----|

|---------------------------------|-----------------------------|
|---------------------------------|-----------------------------|
|---------------------------------|-----------------------------|
|--1--0-0-0-0-0-0-0-0-0-0-0-0-0-0-|-1--0-0-0-0-0-0--4/3---4/3---|
Riff 3
|--------------------------|----------------------------|
|--------------------------|----------------------------|
|----------4----4----------|------7---------------------|
|--0----0----------3/4-3/4-|-0---------6----6--3/4-3/4--|

|--------------------------|----------------------------|
|--------------------------|----------------------------|
|----------4----4----------|------7---------------------|
|--0----0----------3/4-3/4-|-0---------6----6--3/4-3/4--|
Riff 4
|---------------------------------------|
|---------------------------------------|
|------------------4-4-4-4-4-4----------|
|--0-0-0-0-0-0-1-1-------------3h4p3h4--|

|---------------------------------------|
|---------------------------------------|
|----------7-7-7-7----------------------|
|--0-0-0-0---------6-6-6-6-6-6-3h4p3h4--|
Riff 5
|------------------------|------------------------|
|------------------------|------------------------|
|------------4-----------|-----------4------------|
|--0----1---------3/4----|-0----1---------3/4-----|
Riff 6
|-----------------------|-----------------------|
|-----------------------|-----------------------|
|-----------4-----------|-----------4-----------|
|-0----1---------3/4----|-0----1---------3/4----|
Riff 7
|-------------------------------------------------------------------------|
|---------------------------------------------------------8-8-8-8-8-8-8-8-|
|-2-2-2-2-2-2-2-2-2-2-2-2-2-2-2-2-6-6-6-6-5-5-5-5-5-5-5-5-----------------|
|-------------------------------------------------------------------------|

|-------------------------------------------------------------------------|
|-------------------------------------------------------------------------|
|-2-2-2-2-2-2-2-2-2-2-2-2-2-2-2-2-6-6-6-6-5-5-5-5-5-5-5-5-----------------|
|---------------------------------------------------------4-4-4-4-4-4-4-4-|
Riff 8
|-----------------------------------------------------------------|
|-----------------------------------------------------------------|
|---------------------------------7-7-7-7-7-7-7-7-7-7-7-7-7-7-7-7-|
|-6-6-6-6-6-6-6-6-6-6-6-6-4-4-4-4---------------------------------|

|-----------------------------------------------------------------|
|-----------------------------------------------------------------|
|-----------------------------------------8-8-8-8-8-8-8-7-7-7-7---|
|-6-6-6-6-6-6-6-6-6-6-6-6-4-4-4-4-4-4-4-4-------------------------|
Riff 9
|----------------------|-------------------------|
|----------------------|-------------------------|
|--------------1-------|-------------------------|
|--0--0--0--0----------|-0--0--0--0--3/4--1------|

|----------------------|-------------------------|
|----------------------|-------------------------|
|--------------1-------|-------------------------|
|--0--0--0--0----------|-0--0-----0--21--2------|
Riff 10
|---------------------|-------------------------|
|---------------------|-------------------------|
|-------------1-------|-------------------------|
|-0--0--0--0----------|-0--0--0--0--3/4--1------|

|----------------------|-------------------------|
|----------------------|-------------------------|
|--------------1-------|-------------------------|
|--0--0--0--0----------|-0--0-----0--21--2-------|
Riff 11
|-----------------------------------|------------------------------------|
|-----------------------------------|------------------------------------|
|--------------1------2------3------|-------------1------2------4--------|
|--0--0--0--0-------------------3~--|-0--0--0--0--------------------3~---|

|-----------------------------------|------------------------------------|
|-----------------------------------|------------------------------------|
|--------------1------2------3------|-------------1------2------4--------|
|--0--0--0--0-------------------3~--|-0--0--0--0--------------------3~---|
Riff 12
|-----------------------------------|------------------------------------|
|-----------------------------------|------------------------------------|
|--------------1------2------3------|-------------1------2---------------|
|--0--0--0--0-------------------3~--|-0--0--0--0--------------------3~---|

Riff 1 x4
Riff 2 x2
Riff 1 x4
Riff 2 x2
Riff 3 x2
Riff 4 x4
Riff 5
Riff 6 x4
Riff 7 x2
Riff 8 x2
Riff 6 x4
Riff 7 x2
Riff 8 x2
Riff 6 x4
Riff 7 x2
Riff 8 x2
Riff 9
Riff 10 x2
Riff 11
Riff 10 x2
Riff 11 x1,5
Riff 12

  Visit MetalTabs.com for more metal tablature

bottom separator

Contact Us | Privacy Policy | Disclaimer | Legal Notice
Copyright © 2001-2014 MetalTabs.com. All Rights Reserved.