top separator

Home

Forum

What's New

Submit a Tab

FAQ

Links

Contact Us

Link to Us

MuSpy.com

MetalTabs.com logo

Bands

0-9

A

B

C

D

E

F

G

H

I

J

K

L

M

N

O

P

Q

R

S

T

U

V

W

X

Y

Z

Search

What

Where
 

Summoning - "A New Power Is Rising" Guitar Tab

Plain Text Version
More Summoning Tabs

Hits: 3943
Updated: 2005-12-30 01:21:33

 

By:

PutridWinds

sendpm.gif

email.gif

Important note
This tab is available online because we obtained explicit permission from Summoning or their label.


#----------------------------------PLEASE NOTE---------------------------------#
#This file is the author's own work and represents their interpretation of the #
#song. You may only use this file for private study, scholarship, or research. #
#Unless specified otherwise, this is NOT an official tab from the band members.#
#------------------------------------------------------------------------------#

  Visit MetalTabs.com for more metal tablature
  
Band:  Summoning
Album: Let Mortal Heroes Sing Your Fame
Song:  A New Power is Rising

Copyright (c) Napalm Records 2001

Transcribed By: Putrid Winds


.  - palm mute           /  - slide up to
\  - slide down to       ~  - vibrato
h  - hammer on           b  - Bend
p  - pull off            Suffixes for bend
t  - tap                 f  - full bend    h - half bend
ph - pinched harmonic    q  - quarter bend t - tap bend
*  - see comment         ^  - Hold bend    r release bend
x  - Stuccatto           ~  - vibrato bend
,  - slight palm mute    () - ghost note, sustained note
"  - tremolo note        <> - Trill

Tuning E A D G B E

NOTICE: There is no guitar in this song, Summoning uses keyboards as their main
instrument and this is just the keyboard melodies transposed for a guitar.

Riff 1 (The Keyboard goes beyond a 6 strings range, alternative way to play with
a 6 string is in ( ), or just play the entire thing up 1 octave)
|-----|-----------------|------------------|-----------------|
|-----|-----------------|------------------|-----------------|
|-----|-----------------|------------------|-----------------|
|-----|-----------------|------------------|-----------------|
|-----|-----------------|------------------|-----------------|
|--3--|--3--1--3--------|----3--3--6--3----|--------3--3--6--|
|-----|-----------------|------------------|-----------------|



|----------------|---------------|------------------|-----------------|
|----------------|---------------|------------------|-----------------|
|----------------|---------------|------------------|-----------------|
|----------------|---------------|------------------|-----------------|
|----------------|-----(6)-------|---(5)(5)---(5)---|-------(5)(5)(3)-|
|--6--------4----|---------------|----------3-------|-----------------|
|----------------|------4--------|----3--3-----3----|--------3--3--1--|



|----------------|
|----------------|
|----------------|
|----------------|
|----------------|
|--3----------3--|
|----------------|


Riff 2 (Played with Riff 1 under it)
|---------------|-----------------|-----------------|----------------|
|---------------|-----------------|-----------------|----------------|
|---------------|-----------------|-----------------|----------------|
|------5--------|--5------3--5----|------5-------3--|--5--------6----|
|---------------|-----------------|-----------6-----|----------------|
|---------------|-----------------|-----------------|----------------|



|----------------|-----------------|-----------------|---------------|
|----------------|-----------------|-----------------|---------------|
|----------------|-----------------|-----------------|---------------|
|----3--5--------|--5------3--5----|------5----5--3--|---------------|
|----------------|-----------------|-----------------|--3------------|
|----------------|-----------------|-----------------|---------------|


Riff 3 (Played with Riff 1 and 2 under it) (Notes in ( ) played on trumpet)
|--(15-|--15--13)-----------------|----------------------|
|------|--------------------------|----------------------|
|------|--------------------------|----------------------|
|------|----------10----10--10-12-|--13----13--12--10----|
|------|--------------------------|----------------------|
|------|--------------------------|----------------------|



--------------------------|------------------------|------------------------|
--------------------------|------------------------|------------------------|
--------------------------|------------------------|------10--12----10--12--|
--10--10-12-13----13--12--|--13----13--13-12-13----|--13--------------------|
--------------------------|------------------------|------------------------|
--------------------------|------------------------|------------------------|



----------------------|------------------------|----------------------|
----------------------|------------------------|----------------------|
----------------------|--------------------10--|----------------------|
--12----13--12--------|--12------10----13------|--13--12--10--12------|
----------------13----|------13----------------|----------------------|
----------------------|------------------------|----------------------|

  Visit MetalTabs.com for more metal tablature

bottom separator

Contact Us | Privacy Policy | Disclaimer | Legal Notice
Copyright © 2001-2014 MetalTabs.com. All Rights Reserved.