top separator

Home

Forum

What's New

Submit a Tab

FAQ

Links

Contact Us

Link to Us

MetalTabs.com logo

Bands

0-9

A

B

C

D

E

F

G

H

I

J

K

L

M

N

O

P

Q

R

S

T

U

V

W

X

Y

Z

Search

What

Where
 

Napalm Death - "Reflect On Conflict" Guitar Tab

Plain Text Version
More Napalm Death Tabs

Hits: 2515
Updated: 2005-12-30 01:18:37

 

By:

Daniil

sendpm.gif

email.gif

Important note
This tab is available online because we obtained explicit permission from Napalm Death or their label.


#----------------------------------PLEASE NOTE---------------------------------#
#This file is the author's own work and represents their interpretation of the #
#song. You may only use this file for private study, scholarship, or research. #
#Unless specified otherwise, this is NOT an official tab from the band members.#
#------------------------------------------------------------------------------#

  Visit MetalTabs.com for more metal tablature
  
NAPALM DEATH-Reflect On Conflict
Inside The Torn Apart-1997
Copyright Earache Records
Transcribed by Daniil Laletin
e-mail: dlaletin@mail.ru
version 2.0 October 2005

All corrections are welcome.

  " - tremolo
 / - slide down
 \ - slide up
 . - palm mute
 ~ - long sound
 x - rest
 p - pull off
 h - hammer on
 tr - trill
 () - ghost note, sustained note
 <> - let ring

Tuning from low to high: C# F# B E G# C#
========================================


 Riff 1
|--------------------------------------------|
|--------------------------------------------|
|--------------------------------------------|
|---------6-------------8-------------3----6-|
|-32------4------3------6------3------1----4-|
|-10-0000---0000-1-0000---0000-1-0000---00---|


 Riff 2
|------------------------|
|------------------------|
|------------------------|
|-8---8----10-8---8----7-|
|-67776777--8-67776777-5-|
|--555-555-----555-555---|


 Riff 3
|-----------------|
|-----------------|
|-----------------|
|-8----10-8-----7-|
|-6--7--8-6--7--5-|
|----5-------5----|


 Riff 4
|---------------------------------|
|---------------------------------|
|---------------------------------|
|---------------------------------|
|-7-555-7-555-755-5-333-5-333-533-|
|-5-333-5-333-533-3-111-3-111-311-|


 Riff 5
|------------------------|
|------------------------|
|-----0~~~~~~---0~~~~~---|
|-----5~~~~~~---5~~~~~---|
|---5---------3----------|
|-3---------1------------|


 Riff 6
|------------------------------------------------------------|
|------------------------------------------------------------|
|-8\7"-8\7"-8\7-8\7"-8\7"-8\7---4"---------------------------|
|-------------------------------0"---------------------------|
|-6\5"-6\5"-6\5-6\5"-6\5"-6\5---2"-----522-522-52-522-522-52-|
|--------------------------------------300-300-30-300-300-30-|

  Visit MetalTabs.com for more metal tablature

bottom separator

Contact Us | Privacy Policy | Disclaimer | Legal Notice
Copyright © 2001-2014 MetalTabs.com. All Rights Reserved.