top separator

Home

Forum

What's New

Submit a Tab

FAQ

Links

Contact Us

Link to Us

MetalTabs.com logo

Bands

0-9

A

B

C

D

E

F

G

H

I

J

K

L

M

N

O

P

Q

R

S

T

U

V

W

X

Y

Z

Search

What

Where
 

Samael - "Oriental Dawn" Guitar Tab

Plain Text Version
More Samael Tabs

Hits: 2833
Updated: 2008-04-28 22:55:26

 

By:

sendpm.gif

email.gif

Important note
This tab is available online because we obtained explicit permission from Samael or their label.


#----------------------------------PLEASE NOTE---------------------------------#
#This file is the author's own work and represents their interpretation of the #
#song. You may only use this file for private study, scholarship, or research. #
#Unless specified otherwise, this is NOT an official tab from the band members.#
#------------------------------------------------------------------------------#

  Visit MetalTabs.com for more metal tablature
  
Band: Samael
Album: Reign of Light
Song: Oriental Dawn

Copyright (c) Regain Records 2004
Version 1.1 - 23.04.08

Transcribed By: eRyahXa0S/Darth Wojtex
Email: darthwojtex@interia.pl

~ vibrato
b - bend
ah/nh - harmonics
ps - pick slide
/ - slide
h - hammer on
p - pull of
x - dead note
= - tremolo
_pm - palm mute

Tuning D A F C G D (1 step down)

riff 1 x3

|------------------|
|------------------|
|----------7-7-9-7-|
|-44446677---------|
|------------------|
|------------------|

riff 2a x1

|-----------------------|
|-----------------------|
|-6-7p6-7p6-7p6-7p6-----|
|-------------------7-6-|
|-----------------------|
|-----------------------|

riff 1 x3

|------------------|
|------------------|
|----------7-7-9-7-|
|-44446677---------|
|------------------|
|------------------|

riff 2b

|--------------------------|
|--------------------------|
|-6h7-77-6h7-77-6h7-77-----|
|----------------------7-6-|
|--------------------------|
|--------------------------|

riff 3 (guitar I) x3

|-------------------|
|-------------------|
|-------------------|
|-------/777777-9\7-|
|-4-6-7-/555555-7\5-|
|-2-4-5-------------|

riff 1 (guitar II) x3

|------------------|
|------------------|
|----------7-7-9-7-|
|-44446677---------|
|------------------|
|------------------|

riff 4  (guitar I)

|-----------------|
|-----------------|
|-----------------|
|-6-6/7-6/7-6-----|
|-4-4/5-4/5-4-7---|
|-------------5-3-|
              _ ah pm

riff 2a (guitar II)

|-----------------------|
|-----------------------|
|-6-7p6-7p6-7p6-7p6-----|
|-------------------7-6-|
|-----------------------|
|-----------------------|

riff 3 (guitar I) x3

|-------------------|
|-------------------|
|-------------------|
|-------/777777-9\7-|
|-4-6-7-/555555-7\5-|
|-2-4-5-------------|

riff 1 (guitar II) x3

|------------------|
|------------------|
|----------7-7-9-7-|
|-44446677---------|
|------------------|
|------------------|

riff 4  (guitar I)

|-----------------|
|-----------------|
|-----------------|
|-6-6/7-6/7-6-----|
|-4-4/5-4/5-4-7---|
|-------------5-3-|
              _ ah pm

riff 2a (guitar II)

|-----------------------|
|-----------------------|
|-6-7p6-7p6-7p6-7p6-----|
|-------------------7-6-|
|-----------------------|
|-----------------------|

riff 5 (both guitars) x8

|------------------------------|
|------------------------------|
|------------------------------|
|------------------------------|
|-4-4-x-x--4-4-4-x-4-3/4\3/4\3-|
|-2-2-x-x--2---2-x-2-1/2\1/2\1-|
             ah

riff 3 (guitar I) x3

|-------------------|
|-------------------|
|-------------------|
|-------/777777-9\7-|
|-4-6-7-/555555-7\5-|
|-2-4-5-------------|

riff 1 (guitar II) x3

|------------------|
|------------------|
|----------7-7-9-7-|
|-44446677---------|
|------------------|
|------------------|

riff 4  (guitar I)

|-----------------|
|-----------------|
|-----------------|
|-6-6/7-6/7-6-----|
|-4-4/5-4/5-4-7---|
|-------------5-3-|
              _ ah pm

riff 2a (guitar II)

|-----------------------|
|-----------------------|
|-6-7p6-7p6-7p6-7p6-----|
|-------------------7-6-|
|-----------------------|
|-----------------------|

riff 3 (guitar I) x3

|-------------------|
|-------------------|
|-------------------|
|-------/777777-9\7-|
|-4-6-7-/555555-7\5-|
|-2-4-5-------------|

riff 1 (guitar II) x3

|------------------|
|------------------|
|----------7-7-9-7-|
|-44446677---------|
|------------------|
|------------------|

riff 4  (guitar I)

|-----------------|
|-----------------|
|-----------------|
|-6-6/7-6/7-6-----|
|-4-4/5-4/5-4-7---|
|-------------5-3-|
              _ ah pm

riff 2a (guitar II)

|-----------------------|
|-----------------------|
|-6-7p6-7p6-7p6-7p6-----|
|-------------------7-6-|
|-----------------------|
|-----------------------|

riff 5 (guitar I) x6

|------------------------------|
|------------------------------|
|------------------------------|
|------------------------------|
|-4-4-x-x--4-4-4-x-4-3/4\3/4\3-|
|-2-2-x-x--2---2-x-2-1/2\1/2\1-|
             ah

riff 6 (guitar II - wahwah+flanger)

|------------------------------------------------------------------|
|------------------------------------------------------------------|
|------------------------------------------------------------------|
|-4444444444444444444444444443333-44444444444444444444444444443333-|
|------------------------------------------------------------------|
|------------------------------------------------------------------|

riff 7

|---------------------------------------------------------|
|---------------------------------------------------------|
|----------------------------------------111111101010-7-6-|
|-444-666-777-11-11-11-999-111111-121212------------------|
|----------------------------------------9-9-9-8-8-8--5-4-|
|-222-444-555-9--9--9--777-9-9-9--101010------------------|
  ___ ___ ___ _  _  _  ___ _ _ _  ______ _ _ _ _ _ _  _ _  pm

riff 3 (guitar I) x3

|-------------------|
|-------------------|
|-------------------|
|-------/777777-9\7-|
|-4-6-7-/555555-7\5-|
|-2-4-5-------------|

riff 1 (guitar II) x3

|------------------|
|------------------|
|----------7-7-9-7-|
|-44446677---------|
|------------------|
|------------------|

riff 4  (guitar I)

|-----------------|
|-----------------|
|-----------------|
|-6-6/7-6/7-6-----|
|-4-4/5-4/5-4-7---|
|-------------5-3-|
              _ ah pm

riff 2a (guitar II)

|-----------------------|
|-----------------------|
|-6-7p6-7p6-7p6-7p6-----|
|-------------------7-6-|
|-----------------------|
|-----------------------|

riff 3 (guitar I) x3

|-------------------|
|-------------------|
|-------------------|
|-------/777777-9\7-|
|-4-6-7-/555555-7\5-|
|-2-4-5-------------|

riff 1 (guitar II) x3

|------------------|
|------------------|
|----------7-7-9-7-|
|-44446677---------|
|------------------|
|------------------|

riff 4  (guitar I)

|-----------------|
|-----------------|
|-----------------|
|-6-6/7-6/7-6-----|
|-4-4/5-4/5-4-7---|
|-------------5-3-|
              _ ah pm

riff 2a (guitar II)

|-----------------------|
|-----------------------|
|-6-7p6-7p6-7p6-7p6-----|
|-------------------7-6-|
|-----------------------|
|-----------------------|

riff 8

|--------------------------------|
|--------------------------------|
|--------------------------------|
|--------------------------------|
|-9\---5--4-4---4-4-4-5--4-4---4-|
|----2----2-2-2---2-2----2-2-2---|
  ah   nh       ah    nh       ah

riff 9 x3

|--------------------|
|--------------------|
|----------7777779\7-|
|-44446677-----------|
|----------5555557\5-|
|-22224455-----------|
  ________ _______ _  pm

riff 2b

|--------------------------|
|--------------------------|
|-6h7-77-6h7-77-6h7-77-----|
|----------------------7-6-|
|--------------------------|
|--------------------------|

riff 9 x3

|--------------------|
|--------------------|
|----------7777779\7-|
|-44446677-----------|
|----------5555557\5-|
|-22224455-----------|
  ________ _______ _ pm

riff 2b

|--------------------------|
|--------------------------|
|-6h7-77-6h7-77-6h7-77-----|
|----------------------7-6-|
|--------------------------|
|--------------------------|

riff 10 (guitar I) x4

|----------------------------------|
|----------------------------------|
|----------------------------------|
|----------------------------------|
|-44444444666666667777777799999999-|
|-22222222444444445555555577777777-|

riff 11 (guitar II) x2

|----------------------------------|
|----------------------------------|
|--6666666764444676444467644444444-|
|----------------------------------|
|----------------------------------|
|----------------------------------|

riff 12 (guitar II) x2

|-------------------|
|-------------------|
|-66676667444799976-|
|-------------------|
|-------------------|
|-------------------|

riff 13 (pick slide on guitar II)

|----------------------|
|----------------------|
|----------------------|
|----------------------|
|-44556677889910101111-|
|-2233445566778-8-9-9--|

riff 3 (guitar I) x3

|-------------------|
|-------------------|
|-------------------|
|-------/777777-9\7-|
|-4-6-7-/555555-7\5-|
|-2-4-5-------------|

riff 1 (guitar II) x3

|------------------|
|------------------|
|----------7-7-9-7-|
|-44446677---------|
|------------------|
|------------------|

riff 4  (guitar I)

|-----------------|
|-----------------|
|-----------------|
|-6-6/7-6/7-6-----|
|-4-4/5-4/5-4-7---|
|-------------5-3-|
              _ ah pm

riff 2a (guitar II)

|-----------------------|
|-----------------------|
|-6-7p6-7p6-7p6-7p6-----|
|-------------------7-6-|
|-----------------------|
|-----------------------|

end

|-----|
|-----|
|-----|
|-----|
|-4-4-|
|-2-2-|

  Visit MetalTabs.com for more metal tablature

bottom separator

Contact Us | Privacy Policy | Disclaimer | Legal Notice
Copyright © 2001-2014 MetalTabs.com. All Rights Reserved.