top separator

Home

Forum

What's New

Submit a Tab

FAQ

Links

Contact Us

Link to Us

MetalTabs.com logo

Bands

0-9

A

B

C

D

E

F

G

H

I

J

K

L

M

N

O

P

Q

R

S

T

U

V

W

X

Y

Z

Search

What

Where
 

Toxik - "Voices" Guitar Tab

Plain Text Version
More Toxik Tabs

Hits: 3445
Rated: 5.00 out of 5 (3 votes)
Updated: 2008-08-28 04:49:25

 

By:

MetalThrashingMad

sendpm.gif

email.gif

Important note
This tab is available online because we obtained explicit permission from Toxik or their label.


#----------------------------------PLEASE NOTE---------------------------------#
#This file is the author's own work and represents their interpretation of the #
#song. You may only use this file for private study, scholarship, or research. #
#Unless specified otherwise, this is NOT an official tab from the band members.#
#------------------------------------------------------------------------------#

  Visit MetalTabs.com for more metal tablature
  
================================================================================
                                     VOICES
                              As recorded by Toxik
                       (From the 1988 Album WORLD CIRCUS)
                      Copyright (c) 1988 Roadrunner Records


Words and Music by Josh Christian
Arranged by Toxik
Transcribed by Steve Rubaszek
Version - final - August 17, 2008
Email - Thrasher502@hotmail.com

Thanks to Josh for pointers on the solo!



Gtr I (E A D G B E) - 'Josh I'
Gtr II (E A D G B E) - 'Josh II'
Gtr III (E A D G B E) - 'Lead fill'
Gtr IV (E A D G B E) - 'Solo'


 0:00 - Intro
  Q=112
  N.C.
 2/4   4/4
  Gtr I
                        \0.5/      \0.5/                     \1
                                                             ~~~~~~~~
|-----|----------------------------------|------------------------------|
|-----|----------------------------------|------------------------------|
|-----|----------------------------------|------------------------------|
|-----|------------10-(10)S===12-(12)S===|==14---14---------------------|
|-----|----------------------------------|----------17p15--[15]-(15)----|
|-----|--/8----(8)-----------------------|------------------------------|
|
| Gtr II
|-----|----------------------------------|------------------------------|
|-----|----------------------------------|------------------------------|
|-----|----------------------------------|------------------------------|
|-----|-/10------------------------------|-(10)-------------------------|
|-----|----------------------------------|------------------------------|
|-----|---8------------------------------|--(8)-------------------------|


                                       C#sus2
                                ~~
|------------------|-----------------|-4-4---4-4---|-4-4---4-4----||
|-----------/8-----|------/13--11----|-4-4---4-4---|-4-4---4-4----||
|-/8----(8)----10--|--8--------------|-6-6---6-6---|-6-6---6-6----||
|------------------|-----------------|-6-6---6-6---|-6-6---6-6/---||
|------------------|-----------------|-4-4---4-4---|-4-4---4-4/---||
|------------------|-----------------|-------------|--------------||
|
|------------------|-----------------|-4-4---4-4---|-4-4---4-4----||
|------------------|-----------------|-4-4---4-4---|-4-4---4-4----||
|--8---------------|-(8)-------------|-6-6---6-6---|-6-6---6-6----||
|------------------|-----------------|-6-6---6-6---|-6-6---6-6/---||
|--6---------------|-(6)-------------|-4-4---4-4---|-4-4---4-4/---||
|------------------|-----------------|-------------|--------------||


   Verse - 0:14
    Q=204
    N.C.
    Gtrs I, II
    PM--|    PM--------|  ~~
||---------------------------|
||o--------------------------|
||---------------------------|
||---------------------------|
||o-0-0-0-12-0-0-0-0-0-0-12--|
||---------------------------|


  PM--|                          PM--|    PM--------|  ~~
|------------------------------|----------------------------|
|------------------------------|----------------------------|
|------------------------------|----------------------------|
|-----------------------12-13--|----------------------------|
|-0-0-0-12-0-0-12-13-15--------|-0-0-0-12-0-0-0-0-0-0-12----|
|------------------------------|----------------------------|


                                            B#5B5A#5
                ~~~~~
                      3x
|---------------------||-------------|--------------||
|--------------------o||-------------|--------------||
|---------------------||-9-----------|--------------||
|-------------[18]\---||-9---10---9--|--7---10-9-8--||
|-15--18-16----------o||------8---7--|--5---10-9-8--||
|---------------------||-------------|-------8-7-6--||


   Pre-Verse - 0:30
    Q=208
    $
    N.C.
    PM--|     PM----|        PM--|     PM----| ~    PM--|     PM----|
||-------------------------|----------------------|------------------------|
||o------------------------|----------------------|------------------------|
||-------------------------|----------------------|------------------------|
||--------------------10-9-|----------------------|-------------------10-9-|
||o-0-0-0-6-7-0-0-0-0------|-0-0-0-6-7-------5-6--|-0-0-0-6-7-0-0-0-0------|
||-------------------------|-----------5-6-8------|------------------------|


                                                       D.S.
                                                    B#5B5A#5
  PM--|
|----------------------------||--------------|---------------||
|---------------------------o||--------------|---------------||
|----------------------------||--------------|---------------||
|--------------------12-13---||-14---10---9--|--7---10-9-8---||
|-0-0-0-6-7-12-13-15--------o||-12----8---7--|--5---10-9-8---||
|----------------------------||--------------|-------8-7-6---||


 Verse - 0:53
  Q=200
  N.C.
      ~~~~~~~~~~~~~~~       ~~~~       ~~~~~~~~~~~~~~~       ~~~~
|------------|-------------------|------------|--------------------|
|------------|-------------------|------------|--------------------|
|------------|-------------[9]\--|------------|-------------[9]\---|
|------------|-------------------|------------|--------------------|
|-0---3---0--|-(0)-1---/6--------|-0---3---0--|-(0)-1---/6---------|
|------------|-------------------|------------|--------------------|


  PM----------------------|      ~~~~   PM----------------------|
|-----------------|-------------------|-----------------|-----------------||
|-----------------|-------------------|-----------------|-----------------||
|-------3---------|---3---------[9]\--|-------3---------|---3---------8---||
|-5-----1-----5---|---1---------------|-5-----1-----5---|---1-------------||
|-3-1-0---1-0-3-1-|-0---1-0-/6--------|-3-1-0---1-0-3-1-|-0---1-0-/6------||
|-----------------|-------------------|-----------------|-----------------||


   Chorus - 1:03
    Q=205
    N.C.
    Gtrs I, II
    PM--|     PM----|        PM--|     PM----| ~
||-------------------------|----------------------|
||o------------------------|----------------------|
||-------------------------|----------------------|
||--------------------10-9-|----------------------|
||o-0-0-0-6-7-0-0-0-0------|-0-0-0-6-7-------5-6--|
||-------------------------|-----------5-6-8------|
|
|   Gtr III
||-------------------------|----------------------|
||o------------------------|----------------------|
||-------------------------|----------------------|
||-------------------------|----------------------|
||o------------------------|----------------------|
||-------------------------|----------------------|


   PM------|               PM------|
|-------------------------------------------------|
|-------------------------------------------------|
|-------------------------------------------------|
|-------------------------------------10-----9----|
|--0-----0--0--6-----7-----0--0--0--0-------------|
|-------------------------------------------------|
|
|-------------------------------------------------|
|-17-17-17-17-------------16-16-16-16-------------|
|-------------14-14-14-14-------------14-14-14-14-|
|-------------------------------------------------|
|-------------------------------------------------|
|-------------------------------------------------|


  1.
   PM------|
|------------------------------------------||
|-----------------------------------------o||
|--------------------------------5--7--8---||
|--------------------------7--8------------||
|--0-----0--0--6-----7--------------------o||
|------------------------------------------||
|
|------------------------------------------||
|-17-17-17-17-------------------13-15-16--o||
|-------------14-14-14-14-14-15------------||
|------------------------------------------||
|-----------------------------------------o||
|------------------------------------------||


 2.
                                           2/4
   PM------|
|-----------------------------------------|------------------|
|-----------------------------------------|------------------|
|--------------------------------5--7--8--|--------7--8-10---|
|--------------------------7--8-----------|--8-10------------|
|--0-----0--0--6-----7--------------------|------------------|
|-----------------------------------------|------------------|
|
|-----------------------------------------|------------------|
|-17-17-17-17-------------------13-15-16--|-------15-16-18---|
|-------------14-14-14-14-14-15-----------|-15-17------------|
|-----------------------------------------|------------------|
|-----------------------------------------|------------------|
|-----------------------------------------|------------------|


   Verse - 1:13
    Q=208
    N.C.
   4/4
    Gtrs I, II
    PM--|     PM----|        PM--|     PM----| ~    PM--|     PM----|
||-------------------------|----------------------|-------------------------|
||o------------------------|----------------------|-------------------------|
||-------------------------|----------------------|-------------------------|
||--------------------10-9-|----------------------|-------------------10-9--|
||o-0-0-0-6-7-0-0-0-0------|-0-0-0-6-7-------5-6--|-0-0-0-6-7-0-0-0-0-------|
||-------------------------|-----------5-6-8------|-------------------------|


                                                    B#5B5A#5
  PM--|
|----------------------------||--------------|---------------||
|---------------------------o||--------------|---------------||
|----------------------------||--------------|---------------||
|--------------------12-13---||-14---10---9--|--7---10-9-8---||
|-0-0-0-6-7-12-13-15--------o||-12----8---7--|--5---10-9-8---||
|----------------------------||--------------|-------8-7-6---||


   Verse - 1:25
    Q=215
    N.C.
    PM----------------------|  ~~~~~~~~
||------------------|-------------------|
||o-----------------|-------------------|
||------------------|---------[4]--[5]--|
||------4-----4-----|-4-----4-----------|
||o-2-2-2-2-2-2-2-2-|-2-2-2-2-----------|
||------------------|-------------------|


  PM----------------------|  ~~~~~~~~
|-----------------|--------------------||
|-----------------|-------------------o||
|-----------------|--------------------||
|-----4-----4-----|-4-----4------------||
|-2-2-2-2-2-2-2-2-|-2-2-2-2-[2]--[3]--o||
|-----------------|--------------------||


  PM----------------------|  ~~~~~~~~   PM----------------------|  ~~~~~~~~
|-----------------|-------------------|-----------------|-------------------|
|-----------------|-------------------|-----------------|-------------------|
|-----------------|---------[6]--[7]--|-----------------|---------[6]--[7]--|
|-----6-----6-----|-6-----6-----------|-----6-----6-----|-6-----6-----------|
|-4-4-4-4-4-4-4-4-|-4-4-4-4-----------|-4-4-4-4-4-4-4-4-|-4-4-4-4-----------|
|-----------------|-------------------|-----------------|-------------------|


  PM----------------------|  ~~~~~~~~   PM---------------------------------|
|-----------------|-------------------|-----------------|---------------------||
|-----------------|-------------------|-----------------|---------------------||
|-----------------|---------[7]--[8]--|-----------------|------------------12-||
|-----8S7---8S7---|-8S7---8-----------|-----8S7---8S7---|-8S7---8-------12----||
|-5-5-6S5-5-6S5-5-|-6S5-5-6-----------|-5-5-6S5-5-6S5-5-|-6S5-5-6----14-------||
|-----------------|-------------------|-----------------|---------15----------||


 Interlude - 1:42
  Q=206
  N.C.
            PM|            PM
|-12-------------12-------------|------------------------------|
|----13-------------13----------|------------------------------|
|-------14-------------14-------|------------------------------|
|----------14-14----------14-13-|-(13)-14-13-14-14-12----------|
|-------------------------------|---------------------12-------|
|-------------------------------|------------------------13-12-|


            PM|            PM
|-12-------------12----------13-|-(13)-12-13-12-13-12\-24\---|
|----13-------------13----------|----------------------------|
|-------14-------------14-------|----------------------------|
|----------14-14----------14----|----------------------------|
|-------------------------------|----------------------------|
|-------------------------------|----------------------------|


            PM|            PM
|-12-------------12-------------|------------------------------|
|----13-------------13----------|------------------------------|
|-------14-------------14-------|------------------------------|
|----------14-14----------14-13-|-(13)-14-13-14-14-12----------|
|-------------------------------|---------------------12-------|
|-------------------------------|------------------------13-12-|


            PM|            PM
|----------------------------13-|-(13)-12-13-12-13-12\-24\---||
|-13-------------13-------------|----------------------------||
|----14-------------14----------|----------------------------||
|-------15-14-14-------15-14----|----------------------------||
|-------------------------------|----------------------------||
|-------------------------------|----------------------------||


 Solo I - 1:52
  N.C.
  Gtrs I, II
               PM---|                  PM
|-12----------------------12----------------------|
|----13----------------------13-------------------|
|-------14----------------------14----------------|
|-------------14----14----------------14----13----|
|-------------------------------------------------|
|-------------------------------------------------|
|
| Gtr IV
|-------------21-19-18-16-------------20-19-18-17-|
|-19-20-21-22-------------18-19-20-21-------------|
|-------------------------------------------------|
|-------------------------------------------------|
|-------------------------------------------------|
|-------------------------------------------------|


|---------------------------------------------------|
|---------------------------------------------------|
|---------------------------------------------------|
|-(13)----14----13----14----14----12----------------|
|------------------------------------12-------------|
|---------------------------------------13----12----|
|
|---------------19-18-17-16-------------18-17-16-15-|
|--17--18-19-20-------------16-17-18-19-------------|
|---------------------------------------------------|
|---------------------------------------------------|
|---------------------------------------------------|
|---------------------------------------------------|


               PM---|                  PM
|----------------------------------------13-|
|-13----------------------13----------------|
|----14----------------------14-------------|
|-------15----14----14----------15----14----|
|-------------------------------------------|
|-------------------------------------------|
|
|-------------17-15-14-13-------------16----|
|-15-16-17-18-------------14-15-16-17-------|
|-------------------------------------------|
|-------------------------------------------|
|-------------------------------------------|
|-------------------------------------------|


                                        PM|            PM
|-(13)-12-13-12-13-12\-24\--|-12-------------12--------------|
|---------------------------|----13-------------13-----------|
|---------------------------|-------14-------------14--------|
|---------------------------|----------14-14----------14-13--|
|---------------------------|--------------------------------|
|---------------------------|--------------------------------|
|
|---------------------------|--------------------------------|
|---------------------------|--------------------------------|
|---------------------------|--------------------------------|
|---------------------------|--------------------------------|
|---------------------------|--------------------------------|
|---------------------------|--------------------------------|


  Gtrs I, II
|----------------------------|
|----------------------------|
|----------------------------|
|-13-14-13-14-14-12----------|
|-------------------12-------|
|----------------------13-12-|


                                 5/4
            PM|            PM
|-12-------------12-------------|---------------------||
|----13-------------13----------|---------------------||
|-------14-------------14-------|---------------------||
|----------14-14----------14----|---------------------||
|-------------------------------|-------12--14--15----||
|----------------------------15-|-(15)----------------||


 Interlude - 2:02
  Q=200
  N.C.
 4/4
          \0.5/       \0.5/       \0.5/  \0.5/   \0.5/   \0.5/
|------------------|-------------------------------------------|
|-----7--(7)S===8--|-(8)S===10--(10)S===12------14-----(14)S===|
|-4----------------|-------------------------------------------|
|------------------|-------------------------------------------|
|------------------|-------------------------------------------|
|------------------|-------------------------------------------|


                        ~~~~
|---------------17--|-(17)----|
|-15---14-(14)------|---------|
|-------------------|---------|
|-------------------|---------|
|-------------------|---------|
|-------------------|---------|


                                                            Solo - 2:11
  Gtrs I, II
                                                              \1
                                                   ~
|-17h19-14----15h17-12--|-(12)-12s9---10-9--|-9h10p9------||-(9)-----||
|-----------------------|-------------------|-------------||---------||
|-----------------------|-------------------|-------------||---------||
|-----------------------|-------------------|-------------||---------||
|-----------------------|-------------------|-------------||---------||
|-----------------------|-------------------|-------------||---------||
|
| Gtr IV
|                                                             /1_______
|-----------------------|-------------------|-------------||---------||
|-----------------------|-------------------|-------------||---------||
|-----------------------|-------------------|-------------||-<9>-----||
|-----------------------|-------------------|-------------||---------||
|-----------------------|-------------------|-------------||---------||
|-----------------------|-------------------|-------------||---------||


  Gtr I
    /                                                 |
|--------------|-------------------|---------------|----------|
|--------------|-------------------|---------------|----------|
|--[3]---------|--(3)--------------|--(3)----------|-(3)------|
|--------------|-------------------|---------------|----------|
|--------------|-------------------|---------------|----------|
|--------------|-------------------|---------------|----------|
|
| Gtr IV
|                           |
|   ~~~~~~~~~~~~~~~~~~~~~~~~~~~~~~~~~~~~~~               ~~
|--------------|-------------------|---------------|----------|
|--------------|-------------------|---------------|----------|
|-(<9>)--------|-(<9>)----(<9>)----|-/16--------14h|=16p14----|
|--------------|-------------------|---------------|----------|
|--------------|-------------------|---------------|----------|
|--------------|-------------------|---------------|----------|


  Gtr IV
                                             ~~
|-------------------------|-----------------------|
|---------------[11]b13===|=(11)r-----------------|
|-14--11h12p11------------|-----------------------|
|-------------------------|--------12-14-12-11----|
|-------------------------|-----------------------|
|-------------------------|-----------------------|


                                 /     |
   T     T     T     T     T
|----------------------------|--------------------||
|-19p15h19p17h19p15h19p17h19-|--------------------||
|----------------------------|-[15]---16p14h16----||
|----------------------------|--------------------||
|----------------------------|--------------------||
|----------------------------|--------------------||


|-------14-16-18-16-14-------16-14----------------|
|-16-17----------------17-16-------17-16-17-16-14-|
|-------------------------------------------------|
|-------------------------------------------------|
|-------------------------------------------------|
|-------------------------------------------------|


|-------------------------------------------------|
|----14-------------------------------------------|
|-16----16-15-13-15-13----------------------------|
|----------------------16-14-16-14-13----13-------|
|-------------------------------------16----16-14-|
|-------------------------------------------------|


                                                           ~~
|-------------------------------------|----------18-16-14-16----|
|----------------------------14-16-17-|-14-16-17----------------|
|----------13-15-16-13-15-16----------|-------------------------|
|-13-14-16----------------------------|-------------------------|
|-------------------------------------|-------------------------|
|-------------------------------------|-------------------------|


|-------18-19-21-19-18----------18-19-21-19-18----|
|-19-21----------------21-19-21----------------21-|
|-------------------------------------------------|
|-------------------------------------------------|
|-------------------------------------------------|
|-------------------------------------------------|


|-------18-19-21-19-18----------18----------------|
|-19-21----------------21-19-21----21-19-21-19-17-|
|-------------------------------------------------|
|-------------------------------------------------|
|-------------------------------------------------|
|-------------------------------------------------|


   ~~                                                 ~~
|------------------------------------|---------------------|
|-21---------------------------------|---------------------|
|------20-21-20-18-------------------|-18b20---18-16-18----|
|------------------20-21-18-20-16-18-|---------------------|
|------------------------------------|---------------------|
|------------------------------------|---------------------|


                                                      Q
                                        B#5B5 A#5     N.C.
  Gtrs I, II
|------------------------|----------------------------|
|------------------------|----------------------------|
|------------------------|----------------------------|
|-14------10-------9-----|-------7------10--9--8------|
|-12-------8-------7-----|-------5------10--9--8------|
|------------------------|---------------8--7--6------|
|
| Gtr IV
|                                              ~~~~~~
|--5-------7-------9-----|--(9)-10------------22b24===|
|--8b10---10b12---12b14--|-(12)-13b15---20-22---------|
|------------------------|----------------------------|
|------------------------|----------------------------|
|------------------------|----------------------------|
|------------------------|----------------------------|


   Verse - 2:32
 =204
      PM----|    PM--------|  ~~
||-------------------------------|
||o------------------------------|
||-------------------------------|
||-------------------------------|
||o---0---0-0-12-0-0-0-0-0-0-12--|
||-------------------------------|
|
||--(22)r------------------------|
||o------------------------------|
||-------------------------------|
||-------------------------------|
||o------------------------------|
||-------------------------------|


  PM--|
|------------------------------|
|------------------------------|
|------------------------------|
|-----------------------12-13--|
|-0-0-0-12-0-0-12-13-15--------|
|------------------------------|


  PM--|    PM--------|  ~~                 ~~~~~
                                                 3x
|--------------------------|---------------------||
|--------------------------|--------------------o||
|--------------------------|---------------------||
|--------------------------|-------------[18]\---||
|-0-0-0-12-0-0-0-0-0-0-12--|-15--18-16----------o||
|--------------------------|---------------------||


                                 Pre-verse - 2:49
                              Q=208
                      B#5B5A#5N.C.
                                  PM--|     PM----|
|--------------|--------------||--------------------------|
|--------------|--------------||o-------------------------|
|--------------|--------------||--------------------------|
|-12---10---9--|--7---10-9-8--||--------------------10-9--|
|-10----8---7--|--5---10-9-8--||o-0-0-0-6-7-0-0-0-0-------|
|--------------|-------8-7-6--||--------------------------|


  PM--|     PM----| ~    PM--|     PM----|        PM--|
|----------------------|------------------------|-----------------------------||
|----------------------|------------------------|----------------------------o||
|----------------------|------------------------|-----------------------------||
|----------------------|-------------------10-9-|--------------------12-13----||
|-0-0-0-6-7-------5-6--|-0-0-0-6-7-0-0-0-0------|-0-0-0-6-7-12-13-15---------o||
|-----------5-6-8------|------------------------|-----------------------------||


                                Verse - 3:00
                              Q=200
                      B#5B5A#5N.C.
                                     ~~~~~~~~~~~~~~~       ~~~~
|--------------|--------------||------------|--------------------|
|--------------|--------------||------------|--------------------|
|--------------|--------------||------------|-------------[9]\---|
|-14---10---9--|--7---10-9-8--||------------|--------------------|
|-12----8---7--|--5---10-9-8--||-0---3---0--|-(0)-1---/6---------|
|--------------|-------8-7-6--||------------|--------------------|


      ~~~~~~~~~~~~~~~       ~~~~   PM----------------------|      ~~~~
|------------|-------------------|-----------------|--------------------|
|------------|-------------------|-----------------|--------------------|
|------------|-------------[9]\--|-------3---------|---3---------[9]\---|
|------------|-------------------|-5-----1-----5---|---1----------------|
|-0---3---0--|-(0)-1---/6--------|-3-1-0---1-0-3-1-|-0---1-0-/6---------|
|------------|-------------------|-----------------|--------------------|


                                   Q=
                                   Gt
  PM----------------------|
|-----------------|----------------||
|-----------------|----------------||
|-------3---------|---3---------8--||
|-5-----1-----5---|---1------------||
|-3-1-0---1-0-3-1-|-0---1-0-/6-----||
|-----------------|----------------||
|
|                                  Gt
|-----------------|----------------||
|-----------------|----------------||
|-----------------|----------------||
|-----------------|----------------||
|-----------------|----------------||
|-----------------|----------------||


 Outro - 3:10
 105
 r I
                  \0.5/      \0.5/                     \1
                                                       ~~~~~~~~
|----------------------------------|------------------------------|
|----------------------------------|------------------------------|
|----------------------------------|------------------------------|
|------------10-(10)S===12-(12)S===|==14---14---------------------|
|----------------------------------|----------17p15--[15]-(15)----|
|--/8----(8)-----------------------|------------------------------|
|
|r II
|----------------------------------|------------------------------|
|----------------------------------|------------------------------|
|----------------------------------|------------------------------|
|-/10------------------------------|-(10)-------------------------|
|----------------------------------|------------------------------|
|---8------------------------------|--(8)-------------------------|


                                            Q
|------------------|------------------------|
|-----------/8-----|------------------------|
|-/8----(8)----10--|--8---x-[15]b17r===(15)-|
|------------------|------------------------|
|------------------|------------------------|
|------------------|------------------------|
|
|------------------|------------------------|
|------------------|------------------------|
|--8---------------|-(8)--------------------|
|------------------|------------------------|
|--6---------------|-(6)--------------------|
|------------------|------------------------|


 =107
  G#5
               3/2
|-4-4---4-4---|-4-4---4-4---4-4----*|
|-4-4---4-4---|-4-4---4-4---4-4----*|
|-6-6---6-6---|-6-6---6-6---6-6----*|
|-6-6---6-6---|-6-6---6-6---6-6----*|
|-4-4---4-4---|-4-4---4-4---4-4----*|
|-------------|--------------------*|
|
|-4-4---4-4---|-4-4---4-4---4-4----*|
|-4-4---4-4---|-4-4---4-4---4-4----*|
|-6-6---6-6---|-6-6---6-6---6-6----*|
|-6-6---6-6---|-6-6---6-6---6-6----*|
|-4-4---4-4---|-4-4---4-4---4-4----*|
|-------------|--------------------*|

END

  Visit MetalTabs.com for more metal tablature

bottom separator

Contact Us | Privacy Policy | Disclaimer | Legal Notice
Copyright © 2001-2014 MetalTabs.com. All Rights Reserved.