top separator

Home

Forum

What's New

Submit a Tab

FAQ

Links

Contact Us

Link to Us

MuSpy.com

MetalTabs.com logo

Bands

0-9

A

B

C

D

E

F

G

H

I

J

K

L

M

N

O

P

Q

R

S

T

U

V

W

X

Y

Z

Search

What

Where
 

Deadborn - "Thorns Of Inner Fear" Guitar Tab

Plain Text Version
More Deadborn Tabs

Hits: 1789
Rated: 5.00 out of 5 (1 vote)
Updated: 2006-04-12 03:15:54

 

By:

Meesh

sendpm.gif

email.gif

Important note
This tab is available online because we obtained explicit permission from Deadborn or their label.


#----------------------------------PLEASE NOTE---------------------------------#
#This file is the author's own work and represents their interpretation of the #
#song. You may only use this file for private study, scholarship, or research. #
#Unless specified otherwise, this is NOT an official tab from the band members.#
#------------------------------------------------------------------------------#

  Visit MetalTabs.com for more metal tablature
  
Band:  DEADBORN
Album: Decades of Decapitation
Song:  Thorns of Inner Fear

Copyright (c) 2004

Music Written by Mario Petrovic/Slavek Foltyn

Score Transcribed by Mischa Antohe

Comments and corrections may be sent to demon_meesh@hotmail.com

NOTE: DO NOT be poaching this tab from metaltabs.com for use somewhere else.

PM|- = Palm Mute
b    = Bend
h    = Hammer on
p    = Pull off
[]   = Artificial Harmonic
~    = vibrato
s    = Slide
()   = Tied Notes (Ignore them)
$    = Segno
&    = Coda

  Intro - 0:00
  Q=200
  $
  N.C.(F5)
 4/4
  Gtrs I, II
  PM--------------------|         PM|   PM---------------
|-----------------------------|-------------------------|
|-----------------------------|-------6-----------------|
|-----------------------------|-------------------------|
|-----------------------------|-----3-------------------|
|-----------------------------|---4---------------------|
|-1-1-1-1-1-1-0-0-0-0-0-0-0h1h|=6-------1-1-1-1-1-1-0-0-|


                           3/4
 -------|     PM----------------------------------|
|-------------------------|-------------------------|
|-------------------------|-------------------------|
|---------5---------------|-5-5-5-5-5-5-------------|
|---------3---3-3-3-3-3-3-|-------------2-2-2-2-2-2-|
|---------x---------------|-------------------------|
|-0-0-0-0-1---------------|-------------------------|


 4/4
  PM--------------------|               PM---------------
|-----------------------------|-------------------------|
|-----------------------------|-------6-----------------|
|-----------------------------|-------------------------|
|-----------------------------|-----3-------------------|
|-----------------------------|---4---------------------|
|-1-1-1-1-1-1-0-0-0-0-0-0-0h1h|=6-------1-1-1-1-1-1-0-0-|


                           3/4
 -------|     PM--------|       PM--------|
|-------------------------|--------------------|
|-------------------------|--------------------|
|---------5---------------|-5------------------|
|---------3---1-1-2-2-3-3-|-3---1-1-2-2-3-3----|
|---------x---------------|-x------------------|
|-0-0-0-0-1---------------|-1------------------|


 4/4
  PM--------------------|         PM|   PM---------------
|-----------------------------|-------------------------|
|-----------------------------|-------6-----------------|
|-----------------------------|-------------------------|
|-----------------------------|-----3-------------------|
|-----------------------------|---4---------------------|
|-1-1-1-1-1-1-0-0-0-0-0-0-0h1h|=6-------1-1-1-1-1-1-0-0-|


                                             To Coda
                           3/4
 -------|     PM----------------------------------|
|-------------------------|-----------------------------|
|-------------------------|-----------------------------|
|---------5---------------|-5-5-5-5-5-5-----------------|
|---------3---3-3-3-3-3-3-|-------------2-2-2-2-2-2-----|
|---------x---------------|-----------------------------|
|-0-0-0-0-1---------------|-----------------------------|


 4/4
  Gtrs I, II
  PM--------------------|         PM|   PM---------------
|-----------------------------|-------------------------|
|-----------------------------|-------6-----------------|
|-----------------------------|-------------------------|
|-----------------------------|-----3-------------------|
|-----------------------------|---4---------------------|
|-1-1-1-1-1-1-0-0-0-0-0-0-0h1h|=6-------1-1-1-1-1-1-0-0-|


                            E5F5
                       3/4
 -------------|   PM|
|---------------------|------------|
|---------------6-----|-6----------|
|-------------5-------|-----4-5----|
|-----------3-----3---|-----2-3----|
|---------4---------4-|---4-x-x----|
|-0-0-0-0-------------|-----0-1----|


  N.C.        F5  N.C.
 4/4
  Gtr I
  PM--------|     PM-------
|-------------------------|
|-------------------------|
|-------------5-----------|
|-1-1-2-2-3-3-3---3-3-3-3-|
|-------------x-----------|
|-------------1-----------|
|
| Gtr II
| PM--------|
|-------------------------|
|-------------------------|
|-------------5---3-3-3-3-|
|-1-1-2-2-3-3-3-----------|
|-------------x-----------|
|-------------1-----------|


                                               D.S.
                                           C5
                                 11/16
 ---------------------------|
|-------------------------------|---------------------|
|-------------------------------|---------------------|
|-----5-5-5-5-5-5-------------1-|-(1)--(1)------------|
|-3-3-------------2-2-2-2-2-2-3-|-(3)--(3)-5---(5)----|
|-------------------------------|----------3---(3)----|
|-------------------------------|---------------------|
|
|-------------------------------|---------------------|
|-----6-6-6-6-6-6---------------|---------------------|
|-3-3-------------2-2-2-2-2-2-1-|-(1)--(1)------------|
|-----------------------------3-|-(3)--(3)-5---(5)----|
|-------------------------------|----------3---(3)----|
|-------------------------------|---------------------|


D.S. al Coda
  &
  N.C.
 4/4
  Gtrs I, II
  PM--------------------|               PM---------------
|-----------------------------|-------------------------|
|-----------------------------|-------6-----------------|
|-----------------------------|-------------------------|
|-----------------------------|-----3-------------------|
|-----------------------------|---4---------------------|
|-1-1-1-1-1-1-0-0-0-0-0-0-0h1h|=6-------1-1-1-1-1-1-0-0-|


                           E5F5
                       3/4
 -------------|   PM|
|---------------------|-----------|
|---------------6-----|-6---------|
|-------------5-------|----4-5----|
|-----------3-----3---|----2-3----|
|---------4---------4-|----x-x----|
|-0-0-0-0-------------|----0-1----|


 Section 1 - 0:39
  N.C.                                          F5  N.C.
 4/4
  PM|   PM|       PM--|     PM----|         PM|     PM--------|
|-------------------|---------------------|----------------------|
|-----6-----6-------|---------------6-----|----------------------|
|-------------[5]---|---[5]-----------[5]-|-----5----------------|
|---3-----3---------|-------------3-------|-----3---1-1-2-2-3-3--|
|-4-----4-----------|-----------4---------|-----x----------------|
|-----------------1-|-1-----1-1-----------|-1-1-1----------------|


  Gtr I
  PM--|     PM|     PM--|     PM|     PM-----
|---------------------|---------------------|
|---------------------|---------------------|
|-------[5]-----[6]---|---------------------|
|---------------------|---[2]---------------|
|---------------------|-----------[3]-------|
|-1-1-1-----1-1-----1-|-1-----1-1-----0-0-0-|
|
| Gtr II
| PM--|     PM|     PM--|     PM|     PM-----
|---------------------|---------------------|
|---------------------|---------------------|
|---------------------|---------------------|
|--------3-------4----|---------------------|
|---------------------|----4-------3--------|
|-1-1-1-----1-1-----1-|-1-----1-1-----0-0-0-|


 ---------------------|       PM|     PM|     PM
|-----------------------|-----------------------|
|-----------------------|-----------------------|
|-----------------------|-[5]-----[6]-----------|
|-----1-1-2-2-3-3-------|-----------------[2]---|
|-----------------------|-----------------------|
|-1-1-------------1-1-1-|-----1-1-----1-1-----1-|
|
|---------------------|       PM|     PM|     PM
|-----------------------|-----------------------|
|-----------------------|-----------------------|
|-----------------------|-----------------------|
|-----1-1-2-2-3-3-------|--3-------4------------|
|-----------------------|------------------4----|
|-1-1-------------1-1-1-|-----1-1-----1-1-----1-|


  PM    PM--------------------------|   PM|
|---------------------|---------------------|
|---------------------|---------------------|
|---------------------|---------------------|
|-----------------1-1-|-2-2-3-3-3-----4-----|
|---[3]---------------|---------------------|
|-1-----0-0-0-1-1-----|-----------1-1---1-1-|
|
| PM    PM--------------------------|   PM|
|---------------------|---------------------|
|---------------------|---------------------|
|---------------------|---------------------|
|-----------------1-1-|-2-2-3-3-3-----4-----|
|----3----------------|---------------------|
|-1-----0-0-0-1-1-----|-----------1-1---1-1-|


    PM|   PM|   PM--|   PM|   PM|
|-----------------|-----------------|
|-----------------|-----------------|
|-----------------|-----------------|
|-------------3---|---4-----------2-|
|-4-----3---------|---------4-------|
|---1-1---1-1---1-|-1---1-1---1-1---|
|
|   PM|   PM|   PM--|   PM|   PM|
|-----------------|-----------------|
|-----------------|-----------------|
|-----------------|-----------------|
|-------------3---|---4-----------2-|
|-4-----3---------|---------4-------|
|---1-1---1-1---1-|-1---1-1---1-1---|


  Gtrs I, II
  PM------|   PM|     PM|   PM|   PM--|   PM|   PM|     PM|   PM|   PM|
|-----------------|-----------------|-----------------|------------------|
|-----------------|-----------------|-----------------|------------------|
|-----------5-----|-6---------------|-----------------|------------------|
|-----------------|-------3-----4---|---------------3-|-----4------------|
|-----3-3-3---3-3-|---3-3-----------|---4-----3-------|-----------4------|
|-1-1-------------|---------1-1---1-|-1---1-1---1-1---|-1-1---1-1---1-1--|


    PM------|   PM--|   PM|   PM--------|   PM|   PM|     PM----------------|
|-----------------|-----------------|-----------------|-----------------------|
|-----------------|-----------------|-----------------|-6---------------------|
|-------------5---|---6-----6-------|-----5-----6-----|-----------------------|
|-2---------------|-----------3-----|-----------------|---3-------------------|
|-------3-3-3---3-|-3---3-3-----4-3-|-3-3---3-3---3-3-|-----4-3-3-3-3-3-3-----|
|---1-1-----------|-----------------|-----------------|-------------------1-1-|


    Gtr I
  PM    PM|     PM|       PM|     PM---------
|-----------------------|-------------------|
|-----------------------|-------------------|
|---[5]-----[6]---------|-------------------|
|-------------------[2]-|-------------------|
|-----------------------|-----[3]-----------|
|-1-----1-1-----1-1-----|-1-1-----0-0-0-1-1-|
|
| Gtr II
| PM    PM|     PM|       PM|     PM---------
|-----------------------|-------------------|
|-----------------------|-------------------|
|-----------------------|-------------------|
|----3-------4----------|-------------------|
|--------------------4--|------3------------|
|-1-----1-1-----1-1-----|-1-1-----0-0-0-1-1-|


 -----------------|   PM--|   PM|   PM|
|-----------------------|-----------------|
|-----------------------|-----------------|
|-----------------------|-----------------|
|-1-1-2-2-3-3-3-----4---|---------------3-|
|-----------------------|---4-----3-------|
|---------------1-1---1-|-1---1-1---1-1---|
|
|-----------------|   PM--|   PM|   PM|
|-----------------------|-----------------|
|-----------------------|-----------------|
|-----------------------|-----------------|
|-1-1-2-2-3-3-3-----4---|---------------3-|
|-----------------------|---4-----3-------|
|---------------1-1---1-|-1---1-1---1-1---|


  Gtrs I, II
  PM|   PM|   PM|     PM------|   PM--|   PM|   PM--------|   PM|   PM|
|-----------------|-----------------|-----------------|------------------|
|-----------------|-----------------|-----------------|------------------|
|-----------------|-------------5---|---6-----6-------|-----5-----6------|
|-----4-----------|-2---------------|-----------3-----|------------------|
|-----------4-----|-------3-3-3---3-|-3---3-3-----4-3-|-3-3---3-3---3-3--|
|-1-1---1-1---1-1-|---1-1-----------|-----------------|------------------|


 Bridge - 1:12

    PM------------|   PM--------------|     PM-------
|-----------------------|---------------------------|
|-6-----------------6---|---------------------------|
|-----------------------|---------------[5]---------|
|---3-----------------3-|---------------------------|
|-----4-3-3-3-3-3-3-----|-4-3-3-3-3-3-3-------------|
|-----------------------|-------------------1-1-0-0-|


 -------|     PM------------|
|-----------------------------|
|-----------------------------|
|---------[5]-----------------|
|-----------------------------|
|-----------------------------|
|-0-0-0-0-----1-1-0-0-0-0-0-0-|


    PM------------|   PM--------------|     PM-------
|-----------------------|---------------------------|
|-6-----------------6---|---------------------------|
|-----------------------|---------------[5]---------|
|---3-----------------3-|---------------------------|
|-----4-3-3-3-3-3-3-----|-4-3-3-3-3-3-3-------------|
|-----------------------|-------------------1-1-0-0-|


 -------|     PM------------|
|-----------------------------|
|-----------------------------|
|---------[5]-----------------|
|-----------------------------|
|-----------------------------|
|-0-0-0-0-----1-1-0-0-0-0-0-0-|


 Section 2 - 1:19
  N.C.
    PM|   PM--------------|   PM|   PM|
|---------------------|-------------------|
|-6-----6-------------|-------------------|
|---------------------|-----------------2-|
|---3-----3-----------|-----3-----4-------|
|-----4-----4---------|-------------------|
|-------------1-1-1-1-|-1-1---1-1---1-1---|


  PM------------------------|     PM|   PM--------|
|-----------------------------|------------------------|
|-----------------------------|------------------------|
|-----------------------------|-5-----6----------------|
|-----------------------------|-------------6-6-6-6----|
|-----4-4-4-4-4-4-3-3-3-3-3-3-|---3-3---3-3------------|
|-1-1-------------------------|------------------------|


  PM------------|   PM|     PM|   PM---------------
|-------------------------|-----------------------|
|-------------------------|-----------------------|
|-------------------------|-----2-----------------|
|-6-6-------------3-----4-|-----------------------|
|-------------------------|-----------4-4-4-4-4-4-|
|-----1-1-1-1-1-1---1-1---|-1-1---1-1-------------|


 -----------|   PM|   PM--------------------------|
|-----------------------|-------------------------------|
|-----------------------|-------------------------------|
|-------------5-----6---|-------------------------------|
|-----------------------|---6-6-6-6-6-6-------------3---|
|-3-3-3-3-3-3---3-3---3-|-3-----------------------------|
|-----------------------|---------------1-1-1-1-1-1-----|


  PM|   PM|   PM--------------------|   PM-
|-----------------|-----------------------|
|-----------------|-----------------------|
|-----------2-----|-------------------5---|
|-----4-----------|-----------------------|
|-----------------|-4-4-4-4-4-4-3-3-3---3-|
|-1-1---1-1---1-1-|-----------------------|


 -|   PM--------------------|   PM|   PM|
|-----------------------|------------------|
|-----------------------|------------------|
|---6-------------------|------------------|
|---------6-6-6-6-6-6---|-----3-----4------|
|-3---3-3---------------|------------------|
|---------------------1-|-1-1---1-1---1-1--|


    PM--------------------|   PM|   PM-------
|-----------------------|-------------------|
|-----------------------|-------------------|
|-2---------------------|---5-----6---------|
|-----------------------|---------------6-6-|
|-------4-4-4-4-4-4-3-3-|-3---3-3---3-3-----|
|---1-1-----------------|-------------------|


 -------------|   PM|     PM|   PM--------|
|---------------------|-----------------------|
|---------------------|-----------------------|
|---------------------|-------2---------------|
|-6-6-6-6-------3-----|-4---------------------|
|---------------------|-------------4-4-4-4---|
|---------1-1-1---1-1-|---1-1---1-1-----------|


  PM----------|   PM|     PM-----------------------
|---------------------|---------------------------|
|---------------------|---------------------------|
|---------------5-----|-6-------------------------|
|---------------------|-------6-6-6-6-6-6---------|
|-4-4-4-4-3-3-3---3-3-|---3-3---------------------|
|---------------------|-------------------1-1-1-1-|


 ---|   PM|   PM|     PM------------------------|
|-------------------|-----------------------------|
|-------------------|-----------------------------|
|-----------------2-|-----------------------------|
|-----3-----4-------|-----------------------------|
|-------------------|-----4-4-4-4-4-4-3-3-3-3-3-3-|
|-1-1---1-1---1-1---|-1-1-------------------------|


                                                    Fm
    PM|   PM--------------------------------------|
|---------------------|-------------------------------|
|---------------------|-----------------------------1-|
|-5-----6-------------|-----5-5-5-5-5-5-------------1-|
|-------------6-6-6-6-|-6-6-------------2-2-2-2-2-2-3-|
|---3-3---3-3---------|-------------------------------|
|---------------------|-------------------------------|


           N.C.
           PM--------|     PM|   PM|   PM
|----------------------|-------------------|
|-(1)--1---------------|-------------------|
|-(1)--1---------------|-------------2-----|
|-(3)--3---------------|-3-----4-----------|
|----------------------|-------------------|
|----------1-1-1-1-1-1-|---1-1---1-1---1---|


  PM----------------------|     PM|   PM---------------
|-----------------------------|-----------------------|
|-----------------------------|-----------------------|
|---------------------------5-|-----6-----------------|
|-----------------------------|-----------6-6-6-6-6-6-|
|---4-4-4-4-4-4-3-3-3-3-3-3---|-3-3---3-3-------------|
|-1---------------------------|-----------------------|


 -----------|   PM|   PM--|   PM----------------|
|-----------------------|---------------------------|
|-----------------------|---------------------------|
|-----------------------|---2-----------------------|
|-------------3-----4---|---------------------------|
|-----------------------|---------4-4-4-4-4-4-3-3---|
|-1-1-1-1-1-1---1-1---1-|-1---1-1-------------------|


                                                              Fm
  PM----|   PM|   PM----------------------------------------|
|---------------------|---------------------------------|--------------|-----|
|---------------------|---------------------------------|-----1---1----|-----|
|---------5-----6-----|-------------5-5-5-5-5-5---------|-----1---1----|-----|
|---------------------|-6-6-6-6-6-6-------------2-2-2-2-|-2-2-3---3----|-----|
|-3-3-3-3---3-3---3-3-|---------------------------------|--------------|-----|
|---------------------|---------------------------------|--------------|-----|


   Breakdown - 1:58
    Q=135
    $$
    Fm    GmFmEmFm        F5N.C.    Fm            Dbm/E
                                           15/32
      PM    PM|      PM-|   PM----|             PM
||----------------|-----------------------|---------------||
||o-1---1S3-1-0-1-|-(1)-------------1-(1)-|-(1)---2--(2)-o||
||--1---1S3-1-0-1-|-(1)---5---------1-(1)-|-(1)---1--(1)--||
||--3---3S5-3-2-3-|-(3)---3---------3-(3)-|-(3)---2--(2)--||
||o---------------|-----------------------|--------------o||
||----0-----------|-----0-1-0-1-0-1-------|-----0---------||


    Q=160
    N.C.
   2/4
    Gtr I
||------------------|-----------------|-----------------|
||o-----------------|-----------------|-----------------|
||--1-1-1-1-1-1-0-0-|-0-0-0-0-1-1-1-1-|-1-1-3-3-3-3-3-3-|
||--3-3-3-3-3-3-2-2-|-2-2-2-2-3-3-3-3-|-3-3-5-5-5-5-5-5-|
||o-----------------|-----------------|-----------------|
||------------------|-----------------|-----------------|


                                              D.S.S.
  Gtrs I, II
|-----------------|-----------------|------------------||
|-----------------|-----------------|-----------------o||
|-1-1-1-1-1-1-0-0-|-0-0-0-0-1-1-1-1-|-1-1--------------||
|-3-3-3-3-3-3-2-2-|-2-2-2-2-3-3-3-3-|-3-3-2-2-2-2-2-2--||
|-----------------|-----------------|-----4-4-4-4-4-4-o||
|-----------------|-----------------|------------------||


 Solo - 2:33
  Q=135
  Fm                    Gm    Fm   Em   Fm
 4/4
  Gtr III
    ~~~~~~~
|-----------------------------------------|
|-----------------------------------------|
|-/12b13====(12)-12rp10-12S13---12---10---|
|-----------------------------------------|
|-----------------------------------------|
|-----------------------------------------|
|
| Gtrs I, II
|         PM                  PM---|
|-----------------------------------------|
|---1-------------1S=====3----1----0----1-|
|---1-------------1S=====3----1----0----1-|
|---3-------------3S=====5----3----2----3-|
|-----------------------------------------|
|---------0-------------------------------|


            F5  N.C.                    Fm                       Dbm/E
                                                    15/32
|--------------------------------------------------|---------------------------|
|--------------------------------------------------|---------------------------|
|-(10)---10p==9----9---10---12---12b13====(12)-----|-(12)r-12-10---9-10--(10)--|
|---------------10---------------------------------|---------------------------|
|--------------------------------------------------|---------------------------|
|--------------------------------------------------|---------------------------|
|
|      PM        PM------------|                            PM
|--------------------------------------------------|---------------------------|
|--(1)----------------------------------1------(1)-|--(1)--------2------(2)----|
|--(1)------5---------------------------1------(1)-|--(1)--------1------(1)----|
|--(3)------3---------------------------3------(3)-|--(3)--------2------(2)----|
|--------------------------------------------------|---------------------------|
|------0----1----0---1----0----1-------------------|--------0------------------|


 Fm             Gm Fm    Em    Fm
 4/4
|--------------------------------------|
|--------------------------------------|
|-9-10-9-10---12-13-12-13-10-12---(12)-|
|--------------------------------------|
|--------------------------------------|
|--------------------------------------|
|
|      PM            PM---|
|--------------------------------------|
|-1---------1S====3--1-----0----1------|
|-1---------1S====3--1-----0----1------|
|-3---------3S====5--3-----2----3------|
|--------------------------------------|
|------0-------------------------------|


             F5    N.C.          Fm                   Dbm/E
                                           15/32
|----------------------------------20-----|-------------20------------|
|-------------------------------------20--|-(20)-----------20---------|
|-(12)-13-15-13-15-12-13-15---17----------|--------20---------20------|
|-----------------------------------------|---------------------------|
|-----------------------------------------|---------------------------|
|-----------------------------------------|---------------------------|
|
|          PM       PM------|                    PM
|-----------------------------------------|---------------------------|
|--(1)---------------------------1----(1)-|--(1)------2----------(2)--|
|--(1)--------5------------------1----(1)-|--(1)------1----------(1)--|
|--(3)--------3------------------3----(3)-|--(3)------2----------(2)--|
|-----------------------------------------|---------------------------|
|----------0--1-----0--1--0-1-------------|------0--------------------|


  Fm              Gm   Fm Em Fm
 4/4
   ~~~~~~~~~
|-------------------------------|
|-------------------------------|
|-17---(17)-12p10---12-13-12-10-|
|-------------------------------|
|-------------------------------|
|-------------------------------|
|
|    PM                 PM|
|-------------------------------|
|--1---------1S===3-----1--0--1-|
|--1---------1S===3-----1--0--1-|
|--3---------3S===5-----3--2--3-|
|-------------------------------|
|----0--------------------------|


            F5  N.C.                    Fm                       Dbm/E
                                                    15/32
|--------------------------------------------------|---------------------------|
|--------------------------------------------------|---------------------------|
|-(10)---10p==9----9---10---12---12b13====(12)-----|-(12)r-12-10---9-10--(10)--|
|---------------10---------------------------------|---------------------------|
|--------------------------------------------------|---------------------------|
|--------------------------------------------------|---------------------------|
|
|      PM        PM------------|                            PM
|--------------------------------------------------|---------------------------|
|--(1)----------------------------------1------(1)-|--(1)--------2------(2)----|
|--(1)------5---------------------------1------(1)-|--(1)--------1------(1)----|
|--(3)------3---------------------------3------(3)-|--(3)--------2------(2)----|
|--------------------------------------------------|---------------------------|
|------0----1----0---1----0----1-------------------|--------0------------------|


  Fm                              Gm         Fm            Em         Fm
 4/4
|--------------------------------------------------------------------------|
|--------------------------------------------------------------------------|
|-9h10p9h10p9h10-12p==10h12p10h12p==10h12-10h==13p12h13p12h==13-15p13h==15-|
|--------------------------------------------------------------------------|
|--------------------------------------------------------------------------|
|--------------------------------------------------------------------------|
|
|           PM                               PM------------|
|--------------------------------------------------------------------------|
|-1-----------------1S============3----------1-------------0----------1----|
|-1-----------------1S============3----------1-------------0----------1----|
|-3-----------------3S============5----------3-------------2----------3----|
|--------------------------------------------------------------------------|
|-----------0--------------------------------------------------------------|


                      F5          N.C.                 Fm


|--------------------------------------------------------20--------|
|-----------------------------------------------------------20-----|
|-(15)p13h15p13h15-17p15h17p15h17p15h17---15---17---18-------------|
|------------------------------------------------------------------|
|------------------------------------------------------------------|
|------------------------------------------------------------------|
|
|             PM----------------------------------|
|------------------------------------------------------------------|
|--(1)-------------------------------------------------1-------(1)-|
|--(1)-----------------5-------------------------------1-------(1)-|
|--(3)-----------------3-------------------------------3-------(3)-|
|------------------------------------------------------------------|
|-------------0--------1-----------0----1----0----1----------------|


                 Dbm/E
  15/32
                   ~~~~~~~~
|---------------------------|
|-(20)----------------------|
|--------20-(20)---17--(17)-|
|---------------------------|
|---------------------------|
|---------------------------|
|
|      PM
|---------------------------|
|--(1)-----------2----------|
|--(1)-----------1----------|
|--(3)-----------2----------|
|---------------------------|
|------0--------------------|

 Section 3(Outro) - 2:49
  Q=200
  N.C.(F5)
 4/4
  Gtrs I, II
              PM----------------------|
|---------------------|-------------------------|
|-6-----6-------------|-------------------------|
|---------------------|-------------------------|
|---3-----3-----------|-------------------------|
|-----4-----4---------|-----------------------4-|
|-------------1-1-1-1-|-1-1-0-0-0-0-0-0-0h1h6---|


      PM--------------------|       PM--------|
|-----------------------------|---------------------|
|---6-------------------------|---------------------|
|-----------------------------|-5---------------5---|
|-3---------------------------|-3---1-1-2-2-3-3-3---|
|-----------------------------|-x---------------x---|
|-----1-1-1-1-1-1-0-0-0-0-0-0-|-1---------------1---|


  Gtr I
      PM--------------|       PM|     PM|     PM|
|---------------------------|---------------------|
|---------------------------|---------------------|
|-(5)-------------------[5]-|-----[6]-------------|
|-(3)-1-1-2-2-3-3-----------|-------------[2]-----|
|-(x)-----------------------|---------------------|
|-(1)-------------1-1-1-----|-1-1-----1-1-----1-1-|
|
| Gtr II
|     PM--------------|       PM|     PM|     PM|
|---------------------------|---------------------|
|---------------------------|---------------------|
|-(5)-----------------------|---------------------|
|-(3)-1-1-2-2-3-3--------3--|------4--------------|
|-(x)-----------------------|--------------4------|
|-(1)-------------1-1-1-----|-1-1-----1-1-----1-1-|


      PM--------------------------|     PM|
|-----------------------|------------------------|
|-----------------------|------------------------|
|-----------------------|-----------[5]-----[6]--|
|---------------1-1-2-2-|-3-3--------------------|
|-[3]-------------------|------------------------|
|-----0-0-0-1-1---------|-----1-1-1-----1-1------|
|
|     PM--------------------------|     PM|
|-----------------------|------------------------|
|-----------------------|------------------------|
|-----------------------|------------------------|
|---------------1-1-2-2-|-3-3--------3-------4---|
|--3--------------------|------------------------|
|-----0-0-0-1-1---------|-----1-1-1-----1-1------|


  PM|     PM|     PM---------------------------
|---------------------|-----------------------|
|---------------------|-----------------------|
|---------------------|-----------------------|
|-----[2]-------------|-------1-1-2-2-3-3-3---|
|-------------[3]-----|-----------------------|
|-1-1-----1-1-----0-0-|-0-1-1---------------1-|
|
| PM|     PM|     PM---------------------------
|---------------------|-----------------------|
|---------------------|-----------------------|
|---------------------|-----------------------|
|---------------------|-------1-1-2-2-3-3-3---|
|------4-------3------|-----------------------|
|-1-1-----1-1-----0-0-|-0-1-1---------------1-|


 -|   PM|   PM|     PM|   PM    PM|
|-----------------|-----------------|
|-----------------|-----------------|
|-----------------|-----------------|
|---4-------------|-----3-----4-----|
|---------4-----3-|-----------------|
|-1---1-1---1-1---|-1-1---1-1---1-1-|
|
|-|   PM|   PM|     PM|   PM|   PM|
|-----------------|-----------------|
|-----------------|-----------------|
|-----------------|-----------------|
|---4-------------|-----3-----4-----|
|---------4-----3-|-----------------|
|-1---1-1---1-1---|-1-1---1-1---1-1-|


  Gtrs I, II
    PM|   PM--------|   PM|   PM|     PM|   PM|   PM|     PM|   PM|   PM
|-----------------|-----------------|-----------------|------------------|
|-----------------|-----------------|-----------------|------------------|
|-----------------|---5-----6-------|-----------------|------------------|
|-------2---------|---------------3-|-----4-----------|-------3-----4----|
|-4-----------3-3-|-3---3-3---3-3---|-----------4-----|-3----------------|
|---1-1---1-1-----|-----------------|-1-1---1-1---1-1-|---1-1---1-1---1--|


      PM|   PM--------|   PM|   PM|     PM------|   PM--|   PM|   PM----|
|-----------------|-----------------|-----------------|-------------------|
|-----------------|-----------------|-----------------|---------6---------|
|-----------------|-----5-----6-----|-6-----------5---|---6---------------|
|---------2-------|-----------------|---3-------------|-----------3-------|
|---4-----------3-|-3-3---3-3---3-3-|-----4-3-3-3---3-|-3---3-3-----4-3-3-|
|-1---1-1---1-1---|-----------------|-----------------|-------------------|


  Gtr I
  PM----------|     PM|       PM|     PM|     PM-
|-----------------------|-----------------------|
|-----------------------|-----------------------|
|---------------[5]-----|-[6]-------------------|
|-----------------------|---------[2]-----------|
|-3-3-3-3---------------|-----------------[3]---|
|---------1-1-1-----1-1-|-----1-1-----1-1-----0-|
|
| Gtr II
| PM----------|     PM|       PM|     PM|     PM-
|-----------------------|-----------------------|
|-----------------------|-----------------------|
|-----------------------|-----------------------|
|----------------3------|--4--------------------|
|-3-3-3-3---------------|----------4-------3----|
|---------1-1-1-----1-1-|-----1-1-----1-1-----0-|


 -------------------|     PM|   PM|   PM|
|-----------------------|-----------------|
|-----------------------|-----------------|
|-----------------------|-----------------|
|---------1-1-2-2-3-3-3-|-----4-----------|
|-----------------------|-----------4-----|
|-0-0-1-1---------------|-1-1---1-1---1-1-|
|
|-------------------|     PM|   PM|   PM|
|-----------------------|-----------------|
|-----------------------|-----------------|
|-----------------------|-----------------|
|---------1-1-2-2-3-3-3-|-----4-----------|
|-----------------------|-----------4-----|
|-0-0-1-1---------------|-1-1---1-1---1-1-|


    Gtrs I, II
    PM|   PM|   PM      PM|   PM--------|   PM|   PM|     PM------|   PM
|-----------------|-----------------|-----------------|------------------|
|-----------------|-----------------|-----------------|------------------|
|-----------------|-----------------|-----5-----6-----|-6-----------5----|
|-------3-----4---|---------2-------|-----------------|---3--------------|
|-3---------------|---4-----------3-|-3-3---3-3---3-3-|-----4-3-3-3---3--|
|---1-1---1-1---1-|-1---1-1---1-1---|-----------------|------------------|


      PM|   PM--------------|   PM------------|
|-------------------|---------------------------|
|---------6---------|---------6-----------------|
|---6---------------|---------------------------|
|-----------3-------|-----------3---------------|
|-3---3-3-----4-3-3-|-3-3-3-3-----4-3-3-3-3-3-3-|
|-------------------|---------------------------|


      PM------------|     PM--------------|   PM----|
|---------------------------|--------------------------|
|---------------------------|---------------6----------|
|-[5]-----------------[5]---|--------------------------|
|---------------------------|-----------------3--------|
|---------------------------|-------------------4-3-3--|
|-----1-1-0-0-0-0-0-0-----1-|-1-0-0-0-0-0-0------------|


      PM|   PM------------|
|---------------------------|
|---------6-----------------|
|---------------------------|
|-----------3---------------|
|-3-3-3-3-----4-3-3-3-3-3-3-|
|---------------------------|


      PM------------|     PM--------------|   PM|
|---------------------------|------------------------|
|---------------------------|---------------6-----6--|
|-[5]-----------------[5]---|------------------------|
|---------------------------|-----------------3------|
|---------------------------|-------------------4----|
|-----1-1-0-0-0-0-0-0-----1-|-1-0-0-0-0-0-0----------|


    PM----------|   PM|     PM|   PM-----------
|-----------------------|---------------------|
|-----------------------|---------------------|
|-----------------------|-------2-------------|
|-3---------------3-----|-4-------------------|
|---4-------------------|-------------4-4-4-4-|
|-----1-1-1-1-1-1---1-1-|---1-1---1-1---------|


 ---------------|   PM|     PM------------------------|
|-------------------------|--------------------------------|
|-------------------------|--------------------------------|
|-----------------5-----6-|--------------------------------|
|-------------------------|-----6-6-6-6-6-6----------------|
|-4-4-3-3-3-3-3-3---3-3---|-3-3----------------------------|
|-------------------------|-----------------1-1-1-1-1-1----|


    PM|   PM|   PM--------------------------|
|-----------------|-----------------------------|
|-----------------|-----------------------------|
|-------------2---|---------------------------5-|
|-3-----4---------|-----------------------------|
|-----------------|---4-4-4-4-4-4-3-3-3-3-3-3---|
|---1-1---1-1---1-|-1---------------------------|


                                                  Fm
                         6/4
  PM|   PM--------------------------------------|
|-----------------------|----------------------------------*|
|-----------------------|-------------------------1---1----*|
|-----6-----------------|-5-5-5-5-5-5-------------1---1----*|
|-----------6-6-6-6-6-6-|-------------2-2-2-2-2-2-3---3----*|
|-3-3---3-3-------------|----------------------------------*|
|-----------------------|----------------------------------*|

End.

  Visit MetalTabs.com for more metal tablature

bottom separator

Contact Us | Privacy Policy | Disclaimer | Legal Notice
Copyright © 2001-2014 MetalTabs.com. All Rights Reserved.