top separator

Home

Forum

What's New

Submit a Tab

FAQ

Links

Contact Us

Link to Us

MuSpy.com

MetalTabs.com logo

Bands

0-9

A

B

C

D

E

F

G

H

I

J

K

L

M

N

O

P

Q

R

S

T

U

V

W

X

Y

Z

Search

What

Where
 

Dystopia (US) - "Cosmetic Plague (Rudimentay Peni cover)" Guitar Tab

Plain Text Version
More Dystopia (US) Tabs

Hits: 5709
Rated: 4.75 out of 5 (4 votes)
Updated: 2005-12-30 01:12:04

 

By:

Cunty Shunt

sendpm.gif

email.gif

Important note
We did our best to reach Dystopia (US) and ask for their permission to publish this tab. Unfortunately they did not respond to our requests or we could not find a way to contact them. This tab is available online until Dystopia (US) tells us to take it down.


#----------------------------------PLEASE NOTE---------------------------------#
#This file is the author's own work and represents their interpretation of the #
#song. You may only use this file for private study, scholarship, or research. #
#Unless specified otherwise, this is NOT an official tab from the band members.#
#------------------------------------------------------------------------------#

  Visit MetalTabs.com for more metal tablature
  
Band:  Dystopia
Album: The Aftermath...
Song:  Cosmetic Plague (Rudimentary Peni cover)

Copyright (c)  Misanthropic 1997
Version 1.0 - 12-05

Transcribed By: Jim Haras
Email:          jimharas@yahoo.com


.  - palm mute           /  - slide up to
\  - slide down to       ~  - vibrato
h  - hammer on           b  - Bend
p  - pull off            Suffixes for bend
t  - tap                 f  - full bend    h - half bend
ph - pinched harmonic    q  - quarter bend t - tap bend
*  - see comment         ^  - Hold bend    r release bend
x  - Stuccatto           ~  - vibrato bend
,  - slight palm mute    () - ghost note, sustained note
"  - tremolo note        <> - Trill

Tuning C F A# D# G C

Intro
|-------------------------------------------------------------------|
|-------------------------------------------------------------------|
|-------------------------------------------------------------------|
|-----------3-----------4-------------------------------------------|
|---2-------1-----------2--------3----------------------------------|
|---0----------------------------1----------------------------------|
    x       x           x        x

Main riff throughout
|-------------------------------------------------------------------|
|-------------------------------------------------------------------|
|-------------------------------------------------------------------|
|-----------3-333333-4-444444---------------------------------------|
|--2-222222-1-111111-2-222222-3-333333------------------------------|
|--0-000000-------------------1-111111------------------------------|

Outro
|-------------------------------------------------------------------|
|-------------------------------------------------------------------|
|-------------------------------------------------------------------|
|------------3-333333-4x--------------------------------------------|
|---2-222222-1-111111-2x--4x--3--2----------------------------------|
|---0-000000--------------2x--1--0----------------------------------|
                                 x

That's it!
End

  Visit MetalTabs.com for more metal tablature

bottom separator

Contact Us | Privacy Policy | Disclaimer | Legal Notice
Copyright © 2001-2014 MetalTabs.com. All Rights Reserved.