top separator

Home

Forum

What's New

Submit a Tab

FAQ

Links

Contact Us

Link to Us

MetalTabs.com logo

Bands

0-9

A

B

C

D

E

F

G

H

I

J

K

L

M

N

O

P

Q

R

S

T

U

V

W

X

Y

Z

Search

What

Where
 

Myrk - "The Spell" Guitar Tab

Plain Text Version
More Myrk Tabs

Hits: 1683
Updated: 2005-12-30 01:09:44

 

By:

Otiz

sendpm.gif

email.gif

Important note
This tab is available online because we obtained explicit permission from Myrk or their label.


#----------------------------------PLEASE NOTE---------------------------------#
#This file is the author's own work and represents their interpretation of the #
#song. You may only use this file for private study, scholarship, or research. #
#Unless specified otherwise, this is NOT an official tab from the band members.#
#------------------------------------------------------------------------------#

  Visit MetalTabs.com for more metal tablature
  
Song: The Spell
Artist: Myrk
Album: Icons of the Dark

Tabbed by Finnbogi the Icelander (otiz@d10.is)

Tuning (DGCFAd)
Slide = / \
h = Hammer-on
p = Pull-off
b = bend

Not gonna bother tabbing the tremolo since it's almost everywhere.

Intro while other guitar plays Riff A
d |----8p0----8p0----10p0----10p0----12p0----12p0---|
A |-10-----10-----10------10------10------10--------|
F |-------------------------------------------------|
C |-------------------------------------------------|
G |-------------------------------------------------|
D |-------------------------------------------------|

d |-12p0----12p0----10p0----10p0----8p0----8p0------|
A |------10------10------10------10-----10-----10---|
F |-------------------------------------------------|
C |-------------------------------------------------|
G |-------------------------------------------------|
D |-------------------------------------------------|

d |-7p0----7p0----7~~-------------------------------|
A |-----10-----10-----------------------------------|
F |-------------------------------------------------|
C |------------------------------7-9-10-9--9-10-9---|
G |---------------------7-7h9h10--------------------|
D |-------------------------------------------------|

d |--------------------------------15---------------|
A |-------------------12--12-13-12----13--12--13~-10|
F |--------------9~----------------12---------------|
C |-7~----7~----------------------------------------|
G |-------------------------------------------------|
D |-------------------------------------------------|

Riff A
d |-------------------------------------------------|
A |-------------------------------------------------|
F |-------------------------------------------------|
C |-------------------------------------------------|
G |-------------------------------------------------|
D |-5--5555--5--5--5--3--3333--3--3--3--------------|
PM     ....  .  .  .     ....  .  .  .
d |-------------------------------------------------|
A |-------------------------------------------------|
F |-------------------------------------------------|
C |-------------------------------------------------|
G |-------------------7-----------------------------|
D |-5--5555--5--5--5--5--5555--5--5--5--------------|
PM     ....  .  .  .     ....  .  .  .

d |-------------------------------------------------|
A |-------------------------------------------------|
F |-------------------------------------------------|
C |-------------------------------------------------|
G |-3--3333--3--3--3--2--2222--2--2--2--------------|
D |-------------------------------------------------|
PM     ....  .  .  .     ....  .  .  .

d |-------------------------------------------------|
A |-------------------------------------------------|
F |-------------------------------------------------|
C |-------------------------------------------------|
G |-2-----------------2-----------------------------|
D |-0--0000--0--0--0--0--0000--0--0--0--------------|
PM     ....  .  .  .     ....  .  .  .

Riff B
d |-------------------------------------------------|
A |-------------------------------------------------|
F |-------------------------------------------------|
C |-5---7---4---5---7-------5---7---4---5---7-------|
G |---------------------5-----------------------5---|
D |-------------------------------------------------|
  |   Guitar II plays this                          |
d |-------------------------------------------------|
A |-------------------------------------------------|
F |---------------------7-----------------------7---|
C |-5---7---4---5---7-------5---7---4---5---7-------|
G |-------------------------------------------------|
D |-------------------------------------------------|

d |-------------------------------------------------|
A |-------------------------------------------------|
F |-------------------------------------------------|
C |-5---7---4---5---7---9---9---9---7---5---4-------|
G |-------------------------------------------------|
D |-------------------------------------------------|

Riff C
d |-------------------------------------------------|
A |-------------------------------------------------|
F |-------------------------------------------------|
C |-------------------------------------------------|
G |-7-------6-------7-------8-------5---------------|
D |-------------------------------------------------|
  |   Guitar II plays this                          |
d |-------------------------------------------------|
A |-------------------------------------------------|
F |---------------------------------7---------------|
C |-------------------------7-----------------------|
G |-7-------6-------7-------------------------------|
D |-------------------------------------------------|

Riff D
d |-------------------------------------------------|
A |-------------------------------------------------|
F |-------------------------------------------------|
C |-7--9--10--7--9--10--7--9--10--7--9--10----------|
G |-----------------------------------------7---5---|
D |-------------------------------------------------|
  |   Guitar II plays this                          |
d |-------------------------------------------------|
A |-------------------------------------------------|
F |-------------------------------------------------|
C |-7--9--10--7--9--10-----9--10-----9--10--9-------|
G |---------------------8---------8-------------5---|
D |-------------------------------------------------|

Riff E
d |-------------------------------------------------|
A |-------------------------------------------------|
F |-------------------------------------------------|
C |-7-7-7-7---------8-8-8-8-8-8-8-8-----------------|
G |-5-5-5-5-7-7-7-7-6-6-6-6-6-6-6-6-----------------|
D |---------5-5-5-5---------------------------------|

d |-------------------------------------------------|
A |-------------------------------------------------|
F |-------------------------------------------------|
C |-7-7-7-7-----------------------------------------|
G |-5-5-5-5-7-7-7-7-10-10-10-10-9-9-9-9-------------|
D |---------5-5-5-5-7--7--7--7--7-7-7-7-------------|

Riff F
d |-------------------------------------------------|
A |-------------------------------------------------|
F |--------------------8----------------------------|
C |-------10--------7-----7-------------------------|
G |-7---------7--6----------------------------------|
D |----0--------------------------------------------|

Riff G
d |-------------------------------------------------|
A |-------------------------------------------------|
F |-------------------15--14---15--14------14-------|
C |------17-------17-------------------17-----------|
G |-15-------15-------------------------------------|
D |-------------------------------------------------|

Riff H
d |-------------------------------------------------|
A |-------------------------------------------------|
F |-------------------------------------------------|
C |-14--15--14--12--14--15--------------------------|
G |-------------------------15--14------------------|
D |-------------------------------------------------|

Riff I
d |-------------------------------------------------|
A |-------------------------------------------------|
F |-------------------------------------------------|
C |-------------------------------------------------|
G |-3-3-3-3-3-3-2-2-2-2-2-2-5-5-5-5-5-5-4-4-4-4-4-4-|
D |-------------------------------------------------|
PM| . . . . . . . . . . . . . . . . . . . . . . . . |
  |   Guitar II plays this                          |
d |-------------------------------------------------|
A |-------------------------------------------------|
F |-------------------------------------------------|
C |-5-5-5-6-5-5-4-4-4-5-4-4-7-7-7-8-7-7-6-6-6-7-6-6-|
G |-------------------------------------------------|
D |-------------------------------------------------|

d |-------------------------------------------------|
A |-------------------------------------------------|
F |-------------------------------------------------|
C |-5-5-5-5-5-5-4-4-4-4-4-4-7-7-7-7-7-7-6-6-6-6-6-6-|
G |-------------------------------------------------|
D |-------------------------------------------------|
PM| . . . . . . . . . . . . . . . . . . . . . . . . |
  |   Guitar II plays this                          |
d |-------------------------------------------------|
A |-------------------------------------------------|
F |-7-7-7-8-7-7-6-6-6-7-6-6-9-9-9-109-9-8-8-8-9-8-8-|
C |-------------------------------------------------|
G |-------------------------------------------------|
D |-------------------------------------------------|

Riff K
d |-------------------------------------------------|
A |-------------------------------------------------|
F |---------------9--7--------7-------------9--8----|
C |-7--10--9--10-------10--9-----10--9--10----------|
G |-------------------------------------------------|
D |-------------------------------------------------|

Riff L
d |-------------------------------------------------|
A |-------------------------------------------------|
F |-------------------------------------------------|
C |------------------9\8------9\8-------------------|
G |-2---2--3--2------7\6------7\6-------------------|
D |-0---0--1--0-------------------------------------|
PM      .  .

Riff M
d |-------------------------------------------------|
A |-------------------------------------------------|
F |-------------------------------------------------|
C |-7-7-7-7-7-7-7-7-6-6-6-6-9-9-9-9-----------------|
G |-5-5-5-5-5-5-5-5-4-4-4-4-7-7-7-7-----------------|
D |-------------------------------------------------|

Riff N
d |-------------------------------------------------|
A |-------------------------------------------------|
F |-------------------------------------------------|
C |-9-9-9-9-9-9-------------------------------------|
G |-7-7-7-7-7-7-9-9-9-9-9-9-7-7-7-7-7-7-7-6-6-6-6-6-|
D |-------------7-7-7-7-7-7-5-5-5-5-5-5-5-4-4-4-4-4-|

Riff N2
d |-------------------------------------------------|
A |-------------------------------------------------|
F |-------------------------------------------------|
C |-------------------------------------------------|
G |-7-7-7-7-7-7-------------------------------------|
D |-------------7-7-7-7-7-7-5-5-5-5-5-5-5-4-4-4-4-4-|
  |   Guitar II plays this                          |
d |-------------------------------------------------|
A |-------------------------------------------------|
F |-9-9-9-9-9-9-------------------------------------|
C |-------------9-9-9-9-9-9-7-7-7-7-7-7-7-6-6-6-6-6-|
G |-------------------------------------------------|
D |-------------------------------------------------|

  Visit MetalTabs.com for more metal tablature

bottom separator

Contact Us | Privacy Policy | Disclaimer | Legal Notice
Copyright © 2001-2014 MetalTabs.com. All Rights Reserved.