top separator

Home

Forum

What's New

Submit a Tab

FAQ

Links

Contact Us

Link to Us

MetalTabs.com logo

Bands

0-9

A

B

C

D

E

F

G

H

I

J

K

L

M

N

O

P

Q

R

S

T

U

V

W

X

Y

Z

Search

What

Where
 

Sodom - "Sepulchral Voice" Guitar Tab

Plain Text Version
More Sodom Tabs

Hits: 4738
Rated: 5.00 out of 5 (3 votes)
Updated: 2005-12-30 01:09:36

 

By:

nick_fury

sendpm.gif

email.gif

Important note
This tab is available online because we obtained explicit permission from Sodom or their label.


#----------------------------------PLEASE NOTE---------------------------------#
#This file is the author's own work and represents their interpretation of the #
#song. You may only use this file for private study, scholarship, or research. #
#Unless specified otherwise, this is NOT an official tab from the band members.#
#------------------------------------------------------------------------------#

  Visit MetalTabs.com for more metal tablature
  
Band:  Sodom
Album: In The Sign Of Evil
Song:  Sepulchral Voice

Copyright (c)  SPV/Steamhammer 1984
Version 1.0 - 28.10.2005

Transcribed By: nick_fury
Email: boltsick@wp.pl


.  - palm mute           /  - slide up to
\  - slide down to       ~  - vibrato
h  - hammer on           b  - Bend
p  - pull off            Suffixes for bend
t  - tap                 f  - full bend    h - half bend
ph - pinched harmonic    q  - quarter bend t - tap bend
*  - see comment         ^  - Hold bend    r release bend
x  - Stuccatto           ~  - vibrato bend
,  - slight palm mute    () - ghost note, sustained note
"  - tremolo note        <> - Trill

Tuning E A D G B E

Hello metalheadz! I tabbed this killer song because as far
as I know nobody had already done it. "Sepulchral Voice" is
my favorite song from "In The Sign Of Evil" and if you're
a true thrash metal maniac, you should own this mega-cult EP.
Have fun playing this simple killer. Listen to the cd to get
the correct rhythm.


Opening riff
|-------------------------------------------------------------------|
|-------------------------------------------------------------------|
|-------------------------------------------------------------------|
|-------------------------------------------------------------------|
|-2------5--------2---------5bq---------2-----------2---------------|
|-0------3--------0---------3bq---------0-----------0---------------|

Riff 2
|-------------------------------------------------------------------|
|-------------------------------------------------------------------|
|-------------------------------------------------------------------|
|-------------------------------------------------------------------|
|-------------------2-----------------------5-----------------------|
|-3-2-0-3-2-0-3-2-0-0-----3-2-0-3-2-0-3-2-0-3-----------------------|

Last time during intro:
|-------------------------------------------------------------------|
|-------------------------------------------------------------------|
|-------------------------------------------------------------------|
|-------------------------------------------------------------------|
|-------------------2-----------------------525---------------------|
|-3-2-0-3-2-0-3-2-0-0-----3-2-0-3-2-0-3-2-0-303---------------------|

Main riff
|-------------------------------------------------------------------|
|-------------------------------------------------------------------|
|-------------------------------------------------------------------|
|--44444444----22-44444444-77\66\44444444----22-44444444-77\66------|
|--22222222-55-00-22222222-55\44\22222222-55-00-22222222-55\44------|
|-----------33----------------------------33------------------------|

At the end of each verse play:
|----------------|
|----------------|
|----------------|
|----------------|
|--2-------------|
|--0-------------|

The song consists of combinations like: main riff (four times) riff 2
(4 times) main riff riff (5 times) and so on. After each verse play
riff 2 with lyrics. Listen to the CD to get it.

See ya soon with some: Turbo (Pol), Witchmaster (Pol), Sodom (Ger),
Voivod (Can), Overkill (US), Zeke (US) and DRI (US) tabs. I hope
I'll have time to do some tabbing.

END

  Visit MetalTabs.com for more metal tablature

bottom separator

Contact Us | Privacy Policy | Disclaimer | Legal Notice
Copyright © 2001-2014 MetalTabs.com. All Rights Reserved.